» » »

Of Mice And Men, Depths Tabs (ver.2)

Artists:  A B C D E F G H I J K L M N O P Q R S T U V W X Y Z # 

Depths Tabs (ver.2)

Of Mice And Men Tabs
Rating:
0/5 (0 votes)
Depths lessons Tabs too difficult? Try these video lessons and learn fast
                THE DEPTHS - Of Mice & Men
Tuning: Drop A

This is my first tab so don't be so harsh on me! 
 
 Intro 0:00 - 0:15
 B|---------------------------------------------------------------------------|
F#|---------------------------------------------------------------------------|
 D|---------------------------------------------------------------------------|
 A|1~-00-000-1~-00-000-1~-00-000-1~-000---------------------------------------| x3
 E|1~-00-000-1~-00-000-1~-00-000-1~-000---------------------------------------|
 A|1~-00-000-1~-00-000-1~-00-000-1~-000--s6~----------------------------------|
      .. ...    .. ...    .. ...    ...
 0:16 - 0:20
 B|---------------------------------------------------------------------------|
F#|---------------------------------------------------------------------------|
 D|---------------------------------------------------------------------------|
 A|1~-00-000-1~-00-000-1~-00-00-----------------------------------------------|
 E|1~-00-000-1~-00-000-1~-00-00-----------------------------------------------|
 A|1~-00-000-1~-00-000-1~-00-00-----------------------------------------------|
      .. ...    .. ...    .. ..    
 "GET UP!"
 0:21 - 0:29 
 B||-------------------------------------------------------------------------||
F#||-------------------------------------------------------------------------||
 D||-------------------------------------------------------------------------||
 A||--------------------------------------6~---------------------------------||x2
 E||--------------------------------------6~---------------------------------||
 A||1b-00~00~-1b-00~-00~-1b-00~00~-1b-000-6~---------------------------------||

 0:30 - 0:39
 B|---------------------------------------------------------------------------|
F#|---------------------------------------------------------------------------|
 D|---------------------------------------------------------------------------|
 A|-----------------------------6~----5~----0~----1~-----5~-------------------|
 E|-----------------------------6~----5~----0~----1~-----5~-------------------|
 A|1b-00-00-1b-00-00--1b-00-00--6~----5~----0~----1~-----5~-----s15~----------|

 Main Riff
 0:40 - 0:58 
 B|--------------------------------------------------------------------------||
F#|--------------------------------------------------------------------------||
 D|--------------------------------------------------------------------------||
 A|-----------------------------~--------------------------------------------||x2
 E|---------------------------------------------------------1515-------------||
 A|00-00-00-151515--00-00-88-s151515--00-00-00-151515--00-00----1010-15151515||

 0:59 - 1:01
 B|---------------------------------------------------------------------------|
F#|---------------------------------------------------------------------------|
 D|---------------------------------------------------------------------------|
 A|---------------------------------------------------------------------------|
 E|---------------------------------------------------------------------------|
 A|000-[right guitar then left]-0000-00[both]---------------------------------|

 1:02 - 1:20
 B||-------------------------------------------------------------------------||
F#||-------------------------------------------------------------------------||
 D||-------------------------------------------------------------------------||
 A||-----------------------------6~------------------------------------------||x2
 E||-----------------------------6~------------------------------------------||
 A||000-000-0000-00-000-000-000--6~--000-000-0000-[pause]--000000------------||

 1:21 - 1:39
 B|---------------------------------------------------------------------------|
F#|---------------------------------------------------------------------------|
 D|---7~-------10~------------------------------------------------------------|
 A|5~--5~---8~---8~---1~----0~------------------------------------------------|
 E|5----5~--8~----8~--1~----0~------------------------------------------------|
 A|5~-------8~--------1~----0~------------------------------------------------|
 Main Riff [1:40 - 1:58]
 
 Build-Up
 1:59 - 2:41
 B|---------------------------------------------------------------------------|
F#|---------------------------------------------------------------------------|
 D|---------------------------------------------------------------------------|
 A|1~-00------1~-00-000-1~-00-000-1~-00-000-[1~-000----]----------------------|
 E|1~-00--x5--1~-00-000-1~-00-000-1~-00-000-[1~-000----]x4--------------------|
 A|1~-00------1~-00-000-1~-00-000-1~-00-000-[1~-000-s6~]---[1b]Fifth-time-----|
      ..         .. ...    .. ...    .. ...     ...
 2:42 - 2:46
 B|---------------------------------------------------------------------------|
F#|---------------------------------------------------------------------------|
 D|---------------------------------------------------------------------------|
 A|--------------------------------------6~-----------------------------------|
 E|--------------------------------------6~-----------------------------------|
 A|1b-00~00~-1b-00~-00~-1b-00~00~-1b-000-6~-----------------------------------|

2:46 - 2:52
 B|---------------------------------------------------------------------------|
F#|---------------------------------------------------------------------------|
 D|---------------------------------------------------------------------------|
 A|---------------------------------------------------------------------------| 
 E|-------------------------------000000--------------------------------------|
 A|1b-00~00~-1b-00~-00~-1b-00~00~-111111-1b-----------------------------------|
                                  ......
 2:53 - 2:57
 B|---------------------------------------------------------------------------|
F#|---------------------------------------------------------------------------|
 D|---------------------------------------------------------------------------|
 A|--------------------------------------6~-----------------------------------|
 E|--------------------------------------6~-----------------------------------|
 A|1b-00~00~-1b-00~-00~-1b-00~00~-1b-000-6~-----------------------------------|

 2:58 - 3:18
 B|---------------------------------------------------------------------------|
F#|---------------------------------------------------------------------------|
 D|---------------------------------------------------------------------------|
 A|----------------------0~---------------------------------------------------|
 E|----------------------0~---------------------------------------------------|
 A|1b-00~00~-1b-00~-00~--0~---------------------------------------------------|

3:19 - 3:21
 B|---------------------------------------------------------------------------|
F#|---------------------------------------------------------------------------|
 D|---------------------------------------------------------------------------|
 A|---------------------------------------------------------------------------|
 E|---------------------------------------------------------------------------|
 A|000-[right guitar then left]-0000-00[both]---------------------------------|

 Outro
 3:22 - 3:45
 B||----------------------------------------------------------||--------------|
F#||----------------------------------------------------------||--------------|
 D||----------------------------------------------------------||--------------|
 A||-----------------------------6~---------------6~5~3~-5~3~1||--0-----------| 
 E||-----------------------------6~---------------6~5~3~-5~3~1||--0-----------|
 A||000-000-0000-00-000-000-000--6~--000-000-0000-6-5~3~-5~3~1||--0-----------|
            

comments powered by Disqus
↑ Back to top | Of Mice And Men Tabs for Depths. Lyrics for acoustic guitar and electric guitar. Tablatures and chords are parodies/interpretations of the original songs. You may use it for private study, scholarship, research or language learning purposes only