» » »

Youre Child Is Dead Tabs (ver.1)

Artists:  A B C D E F G H I J K L M N O P Q R S T U V W X Y Z # 

Youre Child Is Dead Tabs (ver.1)

Off With Their Heads
Rating:
0/5 (0 votes)

Tabs too difficult? Try these video lessons and learn fast.
                
Sorry no leads on the intro, haven't fiqured them out.
but here is the rythm for the whole song.

intro -hold C minor 8 measures over lead then

e----------------------------------------------------------------------------|
B----------------------------------------------------------------------------|
G---55555555----------------------------55555555-----------------------------|
D---55555555-55555555-77777777-33333333-55555555-55555555-77777777-33333333--|
A---33333333-55555555-77777777-33333333-33333333-55555555-77777777-33333333--|
E------------33333333-55555555-11111111----------33333333-55555555-11111111--|

Verse "The last thing you need.....

e----------------------------------------------------------------------------|
B----------------------------------------------------------------------------|
G----555-----555-----555------------555-----555-----555----------------------|
D----555-555-555-555-555-333-555555-555-555-555-555-555-333-555555-----------|
A----333-555-333-555-333-333-555555-333-555-333-555-333-333-555555-----------|
E--------333-----333-----111-333333-----333-----333-----111-333333-----------|

"How many times can a little kid..........

e----------------------------------------------------------------------------|
B----------------------------------------------------------------------------|
G----------------------------------------------------------------------------|
D----777777-555555-77777-5-333333-777777-555555-333333-555555----------------|
A----777777-555555-77777-5-333333-777777-555555-333333-555555----------------|
E----555555-333333-55555-3-111111-555555-333333-111111-333333----------------|

"WWWWrrrrrrrrooooooonnnnnngggggg...............

e----------------------------------------------------------------------------|
B----------------------------------------------------------------------------|
G----55555555----------------------------55555555----------------------------|
D----55555555-55555555-77777777-33333333-55555555-55555555-77777777-33333333-|
A----33333333-55555555-77777777-33333333-33333333-55555555-77777777-33333333-|
E-------------33333333-55555555-11111111----------33333333-55555555-11111111-|

Bridge

e----------------------------------------------------------------------------|
B----------------------------------------------------------------------------|
G----55--------55555555-55--------55555555-----------------------------------|
D----55---55---55555555-55---55---55555555-----------------------------------|
A----33---55---33333333-33---33---33333333-----------------------------------|
E---------33-----------------33----------------------------------------------|

Verse second time strum like this, (listen to the song)

e----------------------------------------------------------------------------|
B----------------------------------------------------------------------------|
G----5-------5-------555------------5-------5-------555----------------------|
D----5-----5-5-----5-555-333-555555-5-----5-5-----5-555-333-555555-----------|
A----3-----5-3-----5-333-333-555555-3-----5-3-----5-333-333-555555-----------|
E----------3-------3-----111-333333-------3-------3-----111-333333-----------|

"How many times can a little kid..........

e----------------------------------------------------------------------------|
B----------------------------------------------------------------------------|
G----------------------------------------------------------------------------|
D----777777-555555-77777-5-333333-777777-555555-333333-555555----------------|
A----777777-555555-77777-5-333333-777777-555555-333333-555555----------------|
E----555555-333333-55555-3-111111-555555-333333-111111-333333----------------|

"WWWWrrrrrrrrooooooonnnnnngggggg...............

e----------------------------------------------------------------------------|
B----------------------------------------------------------------------------|
G----55555555----------------------------55555555----------------------------|
D----55555555-55555555-77777777-33333333-55555555-55555555-77777777-33333333-|
A----33333333-55555555-77777777-33333333-33333333-55555555-77777777-33333333-|
E-------------33333333-55555555-11111111----------33333333-55555555-11111111-|

     C              G           C      G
The last thing you need is more security.

            C           F          G
I think the problem has spoken for itself.

       C             G         C              G
You're teaching your kids to repeat what you did,

        C       F            G
growing up as a dickhead yourself.

A         G                    A
How many times can a little kid

                G   F
be called a fag before he's

A        G                 F                G                  C
lost his mind and tries to get back at everyone thats done him wrong?

       G                 A           F
It's a fine line drawn between dark and light.

               C
I'm not saying I would,

                  G                                A
I'm just saying I understand being the butt of the rich kid's jokes

                        F
and to be tortured till you're insane
            
Tabs too difficult? Try these video lessons and learn fast.




comments powered by Disqus
↑ Back to top | Tablatures and chords are parodies/interpretations of the original songs. You may use it for private study, scholarship, research or language learning purposes only