» » »

Sadie Tabs (ver.1)

Artists:  A B C D E F G H I J K L M N O P Q R S T U V W X Y Z # 

Sadie Tabs (ver.1)

Off With Their Heads
Rating:
0/5 (0 votes)

Hard to play? Try these video lessons and learn fast.
                



The riff's just picking G, C, D

E----------------------------------|
B--------------------------3-------|
G--------0----------0----2---------|
D------0---0------2----0-----------|
A----2-------0--3------------------|
E--3-------------------------------|

E-------------------|
B-------------------|
G-----5---777777----|
D--5--5---777777----|
A--5--3---555555----|
E--3----------------|



uh Guitar break?

E------------------|
B------------------|
G---------5----5-7-|
D--5-4-2--5--2-5-7-|
A--5-4-2--3--2-3-5-|
E--3-2-0-----0-----|

E----------------|
B----------------|
G-----5-----5-7--|
D--2--5--2--5-7--|
A--2--3--2--3-5--|
E--0-----0-------|


This part

E----------------------|
B----------------------|
G-------------5---7----|
D--5----5-----5---7----|
A--5----5-----33335555-|
E--3333333333----------|


BRIDGE

The quiet part, after the riff I think they just kinda
mess around with G

E--0-
B--0-
G--0-
D--0-
A--2-
E--3-



End:

E-----------------------------------|
B-----------------------------------|
G-----------------------------------|
D-----------------------------------|
A-----0-2-3---5-7-5---0-2-3-2--0----|
E--3------------------------------3-|

E------------------3-|
B------------------0-|
G------------------0-|
D------------------0-|
A--0-2-3-2-0-3-2-0-2-|
E------------------3-|

And the backing guitar is just playing
G, C, and D power chords as before.




That's it!! Don't forget to support the official release, which
I should really get around to (it's a really good compilation).
            
Hard to play? Try these video lessons and learn fast. | Correct




comments powered by Disqus
↑ Back to top | Tablatures and chords are parodies/interpretations of the original songs. You may use it for private study, scholarship, research or language learning purposes only