>
 >
I Hope You Know

I Hope You Know Guitar Tabs

Off With Their Heads - I Hope You Know chords, tabs, tablatures, lyrics

Guitar lessons | Add/correct | Request | Top 50 tabs Artists:  A B C D E F G H I J K L M N O P Q R S T U V W X Y Z 0-9

I Hope You Know Guitar Tabs – Off With Their Heads

CD, Sheet music, Poster

Do you like I Hope You Know? Share with your friends now
Tabs
-------------------------------------------------------------------------------
-------------------------------------------------------------------------------

Tuning: Standard

Intro
e|---------------------------------------------------------------------------|
B|---------------------------------------------------------------------------|
G|-9---------------11--------------------------------------------------------|
D|-9---------------11--------------4----------------7------------------------|
A|-7---------------9---------------4----------------7------------------------|
E|---------------------------------2----------------5------------------------| 

e|---------------------------------------------------------------------------|
B|---------------------------------------------------------------------------|
G|-9---------------11--------------------------------------------------------|
D|-9---------------11--------------4----------------7------------------------|
A|-7-------9-7-6-7-9-------9-7-6-7-4--------9-7-6-7-7-------9-7-6-7----------|
E|---------------------------------2----------------5------------------------|

e|---------------------------------------------------------------------------|
B|---------------------------------------------------------------------------|
G|-9---------------11--------------------------------------------------------|
D|-9---------------11--------------4----------------7------------------------|
A|-7---------------9---------------4----------------7------------------------|
E|---------------------------------2----------------5------------------------| 
(0:28) There's some things I'd like to say before the saying's done...

|----------------------------------------------------------------------------|
B|---------------------------------------------------------------------------|
G|-9---------------11--------------------------------------------------------|
D|-9---------------11--------------4----------------7------------------------|
A|-7-------9-7-6-7-9-------9-7-6-7-4--------9-7-6-7-7-------9-7-6-7----------|
E|---------------------------------2----------------5------------------------|
That even though I hated you almost all the time.

e|---------------------------------------------------------------------------|
B|---------------------------------------------------------------------------|
G|-----------------9---------------------------------------------------------|
D|-4-------7-------9--------------4-------7----------------------------------|
A|-4-------7-------7------9-7-6-7-4-------7----------------------------------|
E|-2-------5----------------------2-------5----------------------------------|
And I hope you know wherever you are...

e|---------------------------------------------------------------------------|
B|---------------------------------------------------------------------------|
G|-9999999999999999111111111111111111111111----------------------------------|
D|-999999999999999911111111111111111111111144444444444444447777777777777777--|
A|-77777777777777779-9-9-9-9-9-9-9-9-9-9-9-44444444444444447777777777777777--|
E|-----------------------------------------22222222222222225555555555555555--| x4
(Play once, then "I'm sorry that when you would call.."

e|---------------------------------------------------------------------------| (continued)
B|---------------------------------------------------------------------------|
G|---9--9--9--9--9--9--9--9-----11----11----11----11----11----11----11----11-|
D|---9--9--9--9--9--9--9--9-----11----11----11----11----11----11----11----11-|
A|-777777777777777777777777-9-9-9-9-9-9-9-9-9-9-9-9-9-9-9-9-9-9-9-9-9-9-9-9--|
E|---------------------------------------------------------------------------|

pm first 2 notes

e|---------------------------------------------------------------------------|
B|---------------------------------------------------------------------------|
G|---------------------------------------------------------------------------|
D|---4--4--4--4--4--4--4--4---7--7--7--7--7--7--7--7-------------------------|
A|---4--4--4--4--4--4--4--4---7--7--7--7--7--7--7--7-------------------------|
E|-222222222222222222222222-555555555555555555555555-------------------------| x2 
(play the above followed by this twice - listen to the song for timing)


e|---------------------------------------------------------------------------|
B|---------------------------------------------------------------------------|
G|-9999999999999999111111111111111111111111----------------------------------|
D|-999999999999999911111111111111111111111144444444444444447777777777777777--|
A|-77777777777777779-9-9-9-9-9-9-9-9-9-9-9-44444444444444447777777777777777--|
E|-----------------------------------------22222222222222225555555555555555--| x2
and I hope you know wherever you are

e|---------------------------------------------------------------------------|
B|---------------------------------------------------------------------------|
G|-----------------9---------------------------------------------------------|
D|-4-------7-------9---------------------------------------------------------|
A|-4-------7-------7---------------------------------------------------------|
E|-2-------5-----------------------------------------------------------------|
I'm sorry I wasn't there from the bottom of my heart.





Comments


Popular Off With Their Heads tabs & chords
I Am You Bass Tabs
Your Child Is Dead Bass Tabs
Aqua Panther Chords
Die Young Chords
Janie Chords
For The Four Tabs
Janie Tabs
Call The Cops Ukulele
I Just Want You To Know Ukulele
Janie Ukulele


Song lyrics



↑ Back to top | Tablatures and chords are parodies/interpretations of the original songs. You may use it for private study, scholarship, research or language learning purposes only
© 2014 AZChords.com Contact us | Privacy policy | DMCA | Add/correct tabs | Request tabs | Top 50 tabs