» » »

Fuck This, I'm Out Tabs (ver.1)

Artists:  A B C D E F G H I J K L M N O P Q R S T U V W X Y Z # 

Fuck This, I'm Out Tabs (ver.1)

Off With Their Heads
Rating:
0/5 (0 votes)

Hard to play? Try these video lessons and learn fast.
                ----------------------------------------------------------------------------
----------------------------------------------------------------------------

Tuning:Standard

Rate and Comment when you your done.

Intro                       C
e|-------------------------------------------------------------------------|
B|-------------------------------------------------------------------------|
G|---------------------------55555555--------------------------------------|
D|---------------------------55555555--------------------------------------|
A|---------------------------33333333--------------------------------------|
E|-------------------------------------------------------------------------|
                             ....
Verses

  I'm Counting Down The Days.......
   C         F         C       F     G
e|-------------------------------------------------------------------------|
B|-------------------------------------------------------------------------|
G|-55555555------------55555555--------------------------------------------|
D|-55555555--33333333--55555555--3333-5555---------------------------------|
A|-33333333--33333333--33333333--3333-5555---------------------------------|
E|-----------11111111------------1111-3333---------------------------------|

Chorus
 
 Comfort In A Land Far Away.........
 F         G       C     G    F                G
e|-------------------------------------------------------------------------|
B|-------------------------------------------------------------------------|
G|-------------------5555--------------------------------------------------|
D|-33333333-55555555-5555-5555-3333333333333333-5--------------------------|
A|-33333333-55555555-3333-5555-3333333333333333-5--------------------------|
E|-11111111-33333333------3333-1111111111111111-3--------------------------|

Bridge

Please Leave Me Alone.........

e|------------------------------------------------------------------------|
B|------------------------------------------------------------------------|
G|--------------55555555----------5555555---------------------------------|
D|--------------55555555-33333333-5555555-3--55555555---------------------|
A|--------------33333333-33333333-3333333-3--55555555---------------------|
E|-----------------------11111111---------1--33333333---------------------|


Repeat Verse, Chorus, and Bridge riffs.

Solo(Lead)
e|-------------------------------------------------------------------------|
B|-------------------------------------------------------------------------|
G|-9-9-9-7-9-10-9-------9-9-9-7-9-10-9----9-7-------7-9-7------------------|
D|----------------10-------------------10--------10-------10---------------|
A|-------------------10--------------------------------------10------------|
E|-------------------------------------------------------------------------|

e|-------------------------------------------------------------------------|
B|-------------------------------------------------------------------------|
G|-7----7-9-7----7------9-9-9-7-9-10-9------9-9-9-7-9-10-9---9-7-----------|
D|---10-------10---10------------------10------------------10--------------|
A|----------------------------------------10-------------------------------|
E|-------------------------------------------------------------------------|

e|-------------------------------------------------------------------------|
B|-------------------------------------------------------------------------|
G|----7-9-7-------7----7-9~------------------------------------------------|
D|-10-------10------10-----------------------------------------------------|
A|------------10-----------------------------------------------------------|
E|-------------------------------------------------------------------------|


Solo (Rhythm)
   C                                G
e|-------------------------------------------------------------------------|
B|-------------------------------------------------------------------------|
G|55555555555555555555555555555555-----------------------------------------|
D|55555555555555555555555555555555-55555555555555555555555555555555--------|
A|33333333333333333333333333333333-55555555555555555555555555555555--------|
E|---------------------------------33333333333333333333333333333333--------|

Third Chorus
  F        G        C G F       C G F          F        G
e|-------------------------------------------------------------------------|
B|-------------------------------------------------------------------------|
G|------------------5------------5-----------------------------------------|
D|33333333-55555555-5-5-3-333333-5-5-3-333333--33333333-55555555-----------|
A|33333333-55555555-3-5-3-333333-3-5-3-333333--33333333-55555555-----------|
E|11111111-33333333---3-1-111111---3-1-111111--11111111-33333333-----------|
  C      A    G    F         G       C    C   A   G               
e|-------------------------------------------------------------------------|
B|-------------------------------------------------------------------------|
G|-------------------------------------------------------------------------|
D|-5555-5555-7777-5555-33333333-55555555-5555-5555-7777-5555---------------|
A|-3333-2222-7777-5555-33333333-55555555-3333-2222-7777-5555---------------|
E|-----------5555-3333-11111111-33333333-----------5555-3333---------------|
  F         G  C        F        C       F
e|----------------------------------------------------------------------|
B|----------------------------------------------------------------------|
G|-------------55555555----------55555555-------------------------------|
D|-33333333-5--55555555-33333333-55555555-33333333----------------------|
A|-33333333-5--33333333-33333333-33333333-33333333----------------------|
E|-11111111-3-----------11111111----------11111111----------------------|
   C        F       C        F    G    C
e|-------------------------------------------------------------------------|
B|-55555555----------------------------------------------------------------|
G|-55555555----------55555555-----------5----------------------------------|
D|-33333333-33333333-55555555-3333-5555-5----------------------------------|
A|----------33333333-33333333-3333-5555-3----------------------------------|
E|----------11111111----------1111-3333------------------------------------|



***********************************
| /   slide up
| \   slide down
| h   hammer-on
| p   pull-off
| ~   vibrato
| +   harmonic
| .   Palm Mute
| b   Bend
| pb  Pre-bend
| br  Bend release
| pbr Pre-bend release
| brb Bend release bend

************************************
            
Hard to play? Try these video lessons and learn fast. | Correct




comments powered by Disqus
↑ Back to top | Tablatures and chords are parodies/interpretations of the original songs. You may use it for private study, scholarship, research or language learning purposes only