» » »

Die Today Tabs (ver.1)

Artists:  A B C D E F G H I J K L M N O P Q R S T U V W X Y Z # 

Die Today Tabs (ver.1)

Off With Their Heads
Rating:
0/5 (0 votes)

Hard to play? Try these video lessons and learn fast.
                off with their heads
die today

sorry no leads, i'm not that good. but the first three notes of the lead are

E----------------|
A----------3-----|
D----2---0-------|
G----------------|
B----------------|
e----------------|

the rest is right there, maybe you can figure it out. now for the rhythm

E----------------1-33------111-3-------------------|
A---------3-33---3-55-3-33-333-5-------------------|
D---------5-55--------5-55-------------------------| x2
G--------------------------------------------------|
B--------------------------------------------------|
e--------------------------------------------------|

i'm not gonna go to work today.......

E-----------------------11111111--33333333------------|
A---33333333--00000000--33333333--55555555------------|
D---55555555--22222222--------------------------------|
G-----------------------------------------------------|
B-----------------------------------------------------|
e-----------------------------------------------------|

E-----------------------1111--3333--55555555--1111--3333--|
A---33333333--00000000--3333--5555--77777777--3333--5555--|
D---55555555--22222222------------------------------------|
G---------------------------------------------------------|
B---------------------------------------------------------|
e---------------------------------------------------------|


E----------------1-33------111-3-------------------|
A---------3-33---3-55-3-33-333-5-------------------|
D---------5-55--------5-55-------------------------| x2
G--------------------------------------------------|
B--------------------------------------------------|
e--------------------------------------------------|

i'm not gonna go to work today.........

E---------------------------11111111--33333333--------|
A--p.m.-33333333--00000000--33333333--55555555--------|
D-------55555555--22222222----------------------------|
G-----------------------------------------------------|
B-----------------------------------------------------|
e-----------------------------------------------------|

E-----------------------1111--3333--55555555--1111--3333--|
A---33333333--00000000--3333--5555--77777777--3333--5555--|
D---55555555--22222222------------------------------------|
G---------------------------------------------------------|
B---------------------------------------------------------|
e---------------------------------------------------------|

(leads go here)

E-----------------------11111111--33333333------------|
A---33333333--00000000--33333333--55555555------------|
D---55555555--22222222--------------------------------|x2
G-----------------------------------------------------|
B-----------------------------------------------------|
e-----------------------------------------------------|

Bridge

E-------------------------1-11-1111--33333333--------------|
A---0-00-0000--3-33-3333--3-33-3333--55555555--------------|
D---2-22-2222--5-55-5555-----------------------------------|
G----------------------------------------------------------|
B----------------------------------------------------------|
e----------------------------------------------------------|

i just wanna f**kin cry today......

E-----------------------11111111--33333333------------|
A---33333333--00000000--33333333--55555555------------|
D---55555555--22222222--------------------------------|
G-----------------------------------------------------|
B-----------------------------------------------------|
e-----------------------------------------------------|

E-----------------------1111--3333--55555555--1111--3333--|
A---33333333--00000000--3333--5555--77777777--3333--5555--|
D---55555555--22222222------------------------------------|
G---------------------------------------------------------|
B---------------------------------------------------------|
e---------------------------------------------------------|

die today!!!

E----------------1-33------111-3-------------------|
A---------3-33---3-55-3-33-333-5-------------------|
D---------5-55--------5-55-------------------------| x2
G--------------------------------------------------|
B--------------------------------------------------|
e--------------------------------------------------|

C    F  G   C   F  G  x2

                    C
I'm not gonna go to work today.
                     A
I wanna feel the sun shine on my face,
                      F
and pretend like everything's ok.
                     G
I won't let anything get to me.
                          C
My morning coffee and cigarettes to blaze
                         A
Out on the porch with my insanity.
               F                            G
I'm gonna be a bum and sit out here all day long.
                    C           F  G
I'm not gonna go to work today.

I'm not gonna go to work today.
I wanna feel the sun shine on my face,
and pretend like everything's ok.
I won't let anything get to me.
I'm not gonna go to work today.
I wanna feel the sun shine on my face.
I'm gonna be a bum and sit out here all day long.
I'm not gonna go away.
I'm gonna be a bum and sit out here all day long.
I don't wanna go.

I just wanna f**king cry today
because nothing ever goes my way.
I spent all my money on cocaine
and I still have rent and bills to pay.
Everyone's so f**king p**sed at me.
The reasons why are so obvious to see.
I don't care about anyone when the dealers paid and gone and pain is relieved.
I'll tie it tight around my neck and kick the chair out with my legs
because I want to f**king die today.
Yeah, die today.
            
Hard to play? Try these video lessons and learn fast. | Correct




comments powered by Disqus
↑ Back to top | Tablatures and chords are parodies/interpretations of the original songs. You may use it for private study, scholarship, research or language learning purposes only