>
 >
Want U Bad

Want U Bad Guitar Tabs

Offspring - Want U Bad chords, tabs, tablatures, lyrics

Guitar lessons | Add/correct | Request | Top 50 tabs Artists:  A B C D E F G H I J K L M N O P Q R S T U V W X Y Z 0-9

Want U Bad Guitar Tabs – Offspring

CD, Sheet music, Poster

Do you like Want U Bad? Share with your friends now
Tabs
Tuning		: Standard


			  [fill.1]
Intro			  p.m..................
e|-----------------------|-------------------------------------------------|
B|-----------------------|-------------------------------------------------|
G|--9--------------------|-9-9-9-9-9-9-9-9-9-9-9-9-9-9-9-9-9-9---x-9-------|
D|--9--9-9-~-7-7-~-11-9--|-9-9-9-9-9-9-9-9-9-9-9-9-9-9-9-9-9-9---x-9-------|
A|--7--9-9-~-7-7-~-11-9--|-7-7-7-7-7-7-7-7-7-7-7-7-7-7-7-7-7-7---x-7-------|
E|-----7-7-~-5-5-~-9--7--|-------------------------------------------------|


[rhy.fig. 1]
  pm.....................        pm...................................
e|-------------------------------------------------------------------------|
B|-------------------------------------------------------------------------|
G|--9-9-9-9-9-9-9-9-9-9-9x9------------------------------------------------|
D|--9-9-9-9-9-9-9-9-9-9-9x9-9~11--11-11-11-11-11-11-11-11-11-11-11-11~-----|
A|--7-7-7-7-7-7-7-7-7-7-7x7-9~11--11-11-11-11-11-11-11-11-11-11-11-11~-----|
E|--------------------------7~9---9--9--9--9--9--9--9--9--9--9--9--9-~-----|

 pm..........................	(1)			[end of rhy.fig.1]
e|-----------------------------|-------------------------------------------|
B|-----------------------------|-------------------------------------------|
G|-----------------------------|----------------------------9--------------|
D|-9--9-9-9-9-9-9-9-9-9-9-9-9--|--7-7-7~6-6-6~7-7-7~9-9-9---9--------------|
A|-9--9-9-9-9-9-9-9-9-9-9-9-9--|--7-7-7~6-6-6~7-7-7~9-9-9---7--------------|
E|-7--7-7-7-7-7-7-7-7-7-7-7-7--|--5-5-5~4-4-4~5-5-5~7-7-7------------------|

				(2)			[end of rhy.fig.1]
e|-----------------------------|-------------------------------------------|
B|-----------------------------|-------------------------------------------|
G|------------%----------------|----------------------------9--------------|
D|------------%----------------|--7-x-x~6-x-x~7-x-x~9-x-x---9--------------|
A|-----------------------------|--7-x-x~6-x-x~7-x-x~9-x-x---7--------------|
E|-----------------------------|--5-x-x~4-x-x~5-x-x~7-x-x------------------|


refrain--------------------------------|
				       |(1)--------|(2)
e|-------------------------------------------------|-----------------------|
B|-------------------------------------------------|-----------------------|
G|--2-2--2-2--2--4-4--4-4--4~6-6--6-6--6~9-9--9-9-9|~x-x--x-x-x------------|
D|--2-2--2-2--2--4-4--4-4--4~6-6--6-6--6~9-9--9-9-9|~x-x--x-x-x------------|
A|--0-0--0-0--0--2-2--2-2--2~4-4--6-4--4~7-7--7-7-7|~x-x--x-x-x------------|
E|-------------------------------------------------|-----------------------|

**(repeat rhy.fig.1-fill.1 for chorus)
**(repeat rhy.fig.1 for verse 2)
**(repeat rhy.fig.1-intro for chorus)

                                       bridge------------------------------|
e|------------|---(7)----------(7)-----|(0)-(0)---(0)-(0)---(0)-(0)---0----|
B|------------|--------(7)--------(7)--|-0--(0)----0--(0)----0--(0)---0----|
G|------------|------------------------|-8--(8)----6--(6)----9--(9)---8----|
D|--(9)-------|------------------------|-9--(9)----7--(7)----9--(9)---9----|
A|--(9)-------|------------------------|-9--(9)----7--(7)----7--(7)---9----|
E|--(7)-------|------------------------|-7--(7)----5--(5)----0--(0)---7----|

				       harmonics 
e|-------------------------------------|<7>-------(7)----------------------|
B|-------------------------------------|--------------------<5>------------|
G|-------------------------------------|-----------------------------------|
D|-------------------------------------|-----------------------------------|
A|-------------------------------------|-----------------------------------|
E|-------------------------------------|-----------------------------------|

solo
e|-------------------------------------------------------------------------|
B|-------------------------------------------------------------------------|
G|--888-88888-88~666-6666-666~444-44-4~99999\888-88888-88~666-66-6~9999999-|
D|-------------------------------------------------------------------------|
A|--666-66666-66~444-4444-444~222-22-2~77777\666-66666-66~444-44-4~7777777-|
E|-------------------------------------------------------------------------|

e|-------------------------------------------------------------------------|
B|-------------------------------------------------------------------------|
G|-~111111111111~1313131313~1616161616161616161616\\9----------------------|
D|------------------------------------------------\\9----------------------|
A|-~9-9-9-9-9-9-~1111111111~1414141414141414141414\\7----------------------|
E|-------------------------------------------------------------------------|

**(repeat rhy.fig.1 for chorus)

mid-outro
e|-------------------------------------------------------------------------|
B|-------------------------------------------------------------------------|
G|--------------------------14--(14)(14)--14--(14)(14)---------------------|
D|--9--(9)(9)--9-(9)(9)----------------------------------------------------|
A|--9--(9)(9)--9-(9)(9)-----12--(12)(12)--12--(12)(12)---------------------|
E|--7--(7)(7)--7-(7)(7)----------------------------------------------------|

**(repeat intro for outro)

comments:for the solo chords listen to Cd's and try to strum the chords
         coz, i can't figure out the exact strumming!





Comments


Popular Offspring tabs & chords
Blackball 2 Bass Tabs
Kill The President 1 Bass Tabs
Cruisin California Tabs
Da Hui 2 Tabs
Dammit I Changed Again (Intro) Tabs
Have You Ever Tabs
Hopeless 1 Tabs
Ixnay Intermission Tabs
Oc Life Tabs
Way Down The Line Tabs


Song lyrics



↑ Back to top | Tablatures and chords are parodies/interpretations of the original songs. You may use it for private study, scholarship, research or language learning purposes only
© 2014 AZChords.com Contact us | Privacy policy | DMCA | Add/correct tabs | Request tabs | Top 50 tabs