>
 >
Walla Walla 2

Walla Walla 2 Guitar Tabs

Offspring - Walla Walla 2 chords, tabs, tablatures, lyrics

Guitar lessons | Add/correct | Request | Top 50 tabs Artists:  A B C D E F G H I J K L M N O P Q R S T U V W X Y Z 0-9

Walla Walla 2 Guitar Tabs – Offspring

CD, Sheet music, Poster

Do you like Walla Walla 2? Share with your friends now
TabsTabs v2Tabs v3
walla walla
/ \ - slide


riff

|------------------------------------------------------------------------
|------------------------------------------------------------------------
|------------------------------------------------------------------------
|-3-3--3-3-3-2-0------------------------------------------0-2-3-3--3-5-3-
|----------------3-3--3-3-3-2-0------------0-2-3-3--3-3-3----------------
|-------------------------------3-3--3-3-3-------------------------------

----------------------------------------------|
----------------------------------------------|
----------------------------------------------|
-2-0------------------------------------------|
-----3-3--3-3-3-2-0------------0-2-3--3--3--3-|
--------------------3-3--3-3-3----------------|

chorus

|----------------------------------------------------------------------
|----------------------------------------------------------------------
|-6--6--6-7-8-8-8-8-8-8-8-8-10-11-11-11-11-11-11-11-11-6-6-6-6-6-6-6-6-
|-6--6--6-7-8-8-8-8-8-8-8-8-10-11-11-11-11-11-11-11-11-6-6-6-6-6-6-6-6-
|-4--4--4-5-6-6-6-6-6-6-6-6--8--9--9--9--9--9--9--9--9-4-4-4-4-4-4-4-4-
|----------------------------------------------------------------------

------------------8-8-8-8-8-8-8-8-10-11-11-11-11-11-11-11-11-6-6-6-6-
-6-6-6-6-6-6-6-6--8-8-8-8-8-8-8-8-10-11-11-11-11-11-11-11-11-6-6-6-6-
-6-6-6-6-6-6-6-6--6-6-6-6-6-6-6-6--8--9--9--9--9--9--9--9--9-4-4-4-4-
-4-4-4-4-4-4-4-4-----------------------------------------------------

-------------------------|
-------------------------|
-6-6-6-6-----------------|
-6-6-6-6-6-6-6-6-6-6-6-6-|
-4-4-4-4-6-6-6-6-6-6-6-6-|
---------4-4-4-4-4-4-4-4-|





Comments


Popular Offspring tabs & chords
Autonomy Bass Tabs
Come Out And Play 3 Bass Tabs
Cool To Hate Bass Tabs
Americana Tabs
Bad Habit Tabs
Cant Get My Head Around You 2 Tabs
Cruisin California Tabs
Dirty Magic Complete Tabs
Gotta Keep Them Separated Tabs
Lightning Rod Tabs


Song lyrics



↑ Back to top | Tablatures and chords are parodies/interpretations of the original songs. You may use it for private study, scholarship, research or language learning purposes only
© 2014 AZChords.com Contact us | Privacy policy | DMCA | Add/correct tabs | Request tabs | Top 50 tabs