>
 >
Vultures Intro

Vultures Intro Guitar Tabs

Offspring - Vultures Intro chords, tabs, tablatures, lyrics

Guitar lessons | Add/correct | Request | Top 50 tabs Artists:  A B C D E F G H I J K L M N O P Q R S T U V W X Y Z 0-9

Vultures Intro Guitar Tabs – Offspring

CD, Sheet music, Poster

Do you like Vultures Intro? Share with your friends now
Tabs

Artista: The Offspring
Canción: Vultures
 The Offspring  <<<<<<<<<<<<<<<<<<<<<
 Vultures  <<<<<<<<<<<<<<<<<<<<<<<<
                                (Song´s Tab)
NOTA: PARA ESTA ROLA SIMPRE TENDRAS QUE DEJAR PRESIONADO EL 2 TRASTE 
DE LA 4 CUERDA, COMO SE MUESTRA EN EL EJEMPLO DE ABAJO:

NOTE: EVERYTIME YOU PLAY THIS SONG YOUR FINGER NEED TO STAY LIKE
THIS EXAMPLE:
 
ejemplo:
example:                 
  1---------------------------------------------------
  2---------------------------------------------------
  3---------------------------------------------------
  4----2----------------------------------------------
  5---------------------------------------------------
  6---------------------------------------------------

Here´s the song.
Aqui esta la rola

  1---------------------------------------------------
  2---------------------------------------------------
  3---------------------------------------------------
  4----2---------2--------2-------------2-------------
  5-0-----0---3----3---2-----2---0-------------0------
  6---------------------------------0------0----------

When you touch the last 0 you are touching the first 0
that means that you can repeat it any times, ok???

Cuando tocas el último cero, o la última nota, significa 
que estás tocando la primera nota, osea que puedes empezar
de nuevo las veces que quieras. ok???

Eso es todo...
That´s all...

                                                  By Meb°CopyRight
                                                  Meb(c)2002-2003





Comments


Popular Offspring tabs & chords
D U I 1 Bass Tabs
Dammit I Changed Again Bass Tabs
Gone Away 2 Bass Tabs
Smash It Up 1 Bass Tabs
All I Want Chords
Smash Chords
Come Out And Play Drum Tabs
Amazed 2 Tabs
Pay The Man 5 Tabs
Shes Got Issues 1 Tabs


Song lyrics



↑ Back to top | Tablatures and chords are parodies/interpretations of the original songs. You may use it for private study, scholarship, research or language learning purposes only
© 2014 AZChords.com Contact us | Privacy policy | DMCA | Add/correct tabs | Request tabs | Top 50 tabs