>
 >
Total Immortal

Total Immortal Guitar Tabs

Offspring - Total Immortal chords, tabs, tablatures, lyrics

Guitar lessons | Add/correct | Request | Top 50 tabs Artists:  A B C D E F G H I J K L M N O P Q R S T U V W X Y Z 0-9

Total Immortal Guitar Tabs – Offspring

CD, Sheet music, Poster

Do you like Total Immortal? Share with your friends now
Tabs
Released: 2000 elektra records
Track: 4

x - scratch
pm - palm mute


intro

|-------------------------------------------------------------------|
|-------------------------------------------------------------------|
|-----9-9-----7-7-7------9-9--------------9-9-----7-7-12-14-9-9-9-9-|
|-2-2-9-9-5-5-7-7-7--2-2-9-9-5-x-x-x--2-2-9-9-5-5-7-7-12-14-9-9-9-9-|
|-2-2-7-7-5-5-5-5-5--2-2-7-7-5-x-x-x--2-2-7-7-5-5-5-5-10-12-7-7-7-7-|
|-0-0-----3-3--------0-0-----3-x-x-x--0-0-----3-3-------------------|

verse
        pm____|
|-----------------|
|-----------------|
|-----------------|
|-7-8-5--5-5-5--5-|
|-7-8-5--5-5-5--5-|
|-5-6-3--3-3-3--3-|

pre chorus
pm_______________________|
|----------------------------|
|----------------------------|
|-------------------------10-|
|-9-9-9-9-9-9-9-9-9-9-9-9-10-|
|-9-9-9-9-9-9-9-9-9-9-9-9--8-|
|-7-7-7-7-7-7-7-7-7-7-7-7----|
pm_______________________________________________|
|----------------------------------------------------|
|----------------------------------------------------|
|----------------------------------------------------|
|-2-2-2-2-2-2-2-2-2-2-2-2-2-2-2-2-2-2-2-2-2-2-2-2--2-|
|-2-2-2-2-2-2-2-2-2-2-2-2-2-2-2-2-2-2-2-2-2-2-2-2--2-|
|-0-0-0-0-0-0-0-0-0-0-0-0-0-0-0-0-0-0-0-0-0-0-0-0--0-|

chorus

|-----------------------------------------------------------------
|-----------------------------------------------------------------
|---------------------------------7-7-7-7-7-7-7-7--9-7-9-12-12-12-
|-2-2-2-2-2-2-2-2-5-5-5-5-5-5-5-5-7-7-7-7-7-7-7-7--x-x-x--x--x--x-
|-2-2-2-2-2-2-2-2-5-5-5-5-5-5-5-5-5-5-5-5-5-5-5-5--7-5-7-10-10-10-
|-0-0-0-0-0-0-0-0-3-3-3-3-3-3-3-3---------------------------------

 -------------------------------------------------------------------|
 -------------------------------------------------------------------|
 ---------------------------------7-7-7-7-7-7-7-7--9-11-12-14-14-14-|
 -2-2-2-2-2-2-2-2-5-5-5-5-5-5-5-5-7-7-7-7-7-7-7-7--x--x--x--x--x--x-|
 -2-2-2-2-2-2-2-2-5-5-5-5-5-5-5-5-5-5-5-5-5-5-5-5--7--9-10-12-12-12-|
 -0-0-0-0-0-0-0-0-3-3-3-3-3-3-3-3-----------------------------------|

bridge

|-----|
|-----|
|-----|
|-2:--|
|-2:--|
|-0:--|

|-----------------------------------------------------------|
|-----------------------------------------------------------|
|-9--9-9-9-9--9--9-9-9-7--9--9-9-9-9--9--9-9-9-9-9/10-------|
|-9--9-9-9-9--9--9-9-9-7--9--9-9-9-9--9--9-9-9-9-9/10-2:----|
|-7--7-7-7-7--7--7-7-7-5--7--7-7-7-7--7--7-7-7-7-7/-8-2:----|
|-----------------------------------------------------0:----|

outro

|-----|
|-----|
|-----|
|-2:--|
|-2:--|
|-0:--|

lyrics

hope unkown sometimes just waking is surreal
i walk right through the nameless ones
i know that hope's unknown sometimes the water feels so real
as i walk through it fills my lungs, my god, i'm drowning
this day never seems to end 
this pain, never
this pain, never seems to
this rage i can not let go
i hear them calling
i feel them gnawing out holes, holes through flawless souls
i hear them calling 
i feel them gnawing out holes, holes through flawless, flawless souls
so alone sometimes i swear that i can hear 
the taunting of the voiceless ones
i fear that i alone fear those that finally ceased to feel 
that they're alone inside of this place
i am the misplaced
now every face, it looks familiar
then every face would melt away until
now everyone, do you know, i know your deception?





Comments


Popular Offspring tabs & chords
Autonomy 1 Bass Tabs
I'll Be Waiting 1 Bass Tabs
Kick Him When Hes Down Bass Tabs
Special Delivery Bass Tabs
Beheaded 2 Tabs
Blackball 1 Tabs
Bonus Track On Smash Tabs
Come Out Swinging 1 Tabs
Feelings Tabs
Gotta Get Away 4 Tabs


Song lyrics



↑ Back to top | Tablatures and chords are parodies/interpretations of the original songs. You may use it for private study, scholarship, research or language learning purposes only
© 2014 AZChords.com Contact us | Privacy policy | DMCA | Add/correct tabs | Request tabs | Top 50 tabs