>
 >
The Kids Arent All Right

The Kids Arent All Right Guitar Tabs

Offspring - The Kids Arent All Right chords, tabs, tablatures, lyrics

Guitar lessons | Add/correct | Request | Top 50 tabs Artists:  A B C D E F G H I J K L M N O P Q R S T U V W X Y Z 0-9

The Kids Arent All Right Guitar Tabs – Offspring

CD, Sheet music, Poster

Do you like The Kids Arent All Right? Share with your friends now
ChordsTabs
Track: #5

KEY:
B=Bend
H=Hammer
P=Pull
^=Bend Down
/=Slide

INTRO:  2X
E|----------------|--------------|-----------------|
B|----------------|--------------|-----------------|
G|----6---6-----5-|---5555-6-----|-----6---6-----5-|
D|-88-8-8-8-8-8-8-|-8-8888-8-8-8-|-4-4-4-4-4-4-4-4-|
A|----------------|--------------|-----------------|
E|----------------|--------------|-----------------|

E|--------------|---------------|-------------|
B|--------------|---------------|-------------|
G|---5555-6-----|----8---8----5-|---5555-6----|
D|-4-4444-4-4-4-|-66-6-6-6-66-6-|-6-6666-6-66-|
A|--------------|---------------|-------------|
E|--------------|---------------|-------------|

E|-------------|-----------|
B|-------------|-----------|
G|-6-888-666-5-|-5555-6----|
D|-6-666-666-6-|-6666-6-66-|
A|-------------|-----------|
E|-------------|-----------|

PRE VERSE:  2X
E|-------|-------|-------|-------|-----------------------------------------|
B|-------|-------|-------|-------|-----------------------------------------|
G|-------|-------|-------|-------|-----------------------------------------|
D|-------|-------|-------|-------|-----------------------------------------|
A|-1---1-|-2---4-|-------|-3---4-|-----------3333-4444------4444-3333-4444-|
E|-------|-------|-2---2-|-------|-4444-6666-----------6666----------------|

VERSE:  2X
E|----------|----------|----------|----------|
B|----------|----------|----------|----------|
G|----------|----------|----------|----------|
D|----------|----------|----------|----------|
A|-8--------|--------8-|-4--------|--------4-|
E|-6-666666-|-666666-6-|-2-222222-|-222222-2-|

E|----------|----------|----------|----------|
B|----------|----------|----------|----------|
G|----------|----------|----------|----------|
D|-6--------|--------6-|----------|----------|
A|-4-444444-|-444444-4-|-6--------|--------6-|
E|----------|----------|-4-444444-|-444444-4-|



CHORUS:  2X
E|---------|---------|------------------------|-------------------------|
B|---------|---------|------------------------|-------------------------|
G|---------|---------|------------------------|-------------------------|
D|---------|---------|11-11-11-11-11-11-11-11-|-11-11-11-11-11-11-11-11-|
A|88888888-|88888888-|-9--9--9--9--9--9--9--9-|--9--9--9--9--9--9--9--9-|
E|66666666-|66666666-|------------------------|-------------------------|





E|---------|---------|---------|---------|
B|---------|---------|---------|---------|
G|---------|---------|---------|---------|
D|66666666-|66666666-|---------|---------|
A|44444444-|44444444-|66666666-|66666666-|
E|---------|---------|44444444-|44444444-|

SOLO:  100% correct
E|--------|--------|--------|------|----------|-----------|-13---16-|------|
B|--------|--------|--------|------|-6----9---|-11---14---|-16-B----|-16-^-|
G|--------|--------|--------|------|-8-B-11-B-|-13-B-16-B-|---------|------|
D|--------|--------|--------|------|----------|-----------|---------|------|
A|-1--1/-|-3---3/-|-4---4/-|-6--8-|----------|-----------|---------|------|
E|--------|--------|--------|------|----------|-----------|---------|------|

E|-------|------13-13------13-13-|------13-13----------|-----------------|
B|-14-16-|-16-B-------16-B-------|-16-B-------16^-14---|-14-H-16-P-14--9-|
G|-------|-----------------------|------------------15-|-----------------|
D|-------|-----------------------|---------------------|-----------------|
A|-------|-----------------------|---------------------|-----------------|
E|-------|-----------------------|---------------------|-----------------|

E|----------|-9-9-9-9---------|-------|------13-13--------|------|
B|------9-9-|---------9-------|-9--14-|-16-B-------16^-14-|-16-^-|
G|-11-B-----|-----------10-11-|-------|-------------------|------|
D|----------|-----------------|-------|-------------------|------|
A|----------|-----------------|-------|-------------------|------|
E|----------|-----------------|-------|-------------------|------|

ENDING NOTE:
E|------|
B|-11-9-|
G|------|
D|------|
A|------|
E|------|

SONG ORDER:
INTRO 2X
PRE VERSE 2X
VERSE 2X
CHORUS 2X
PRE VERSE 2X
VERSE 2X
CHOURS 2X
SOLO
CHORUS 2X
ENDING
     Please note:  Last time the chorus is played guitar 2 is playing the ending note repeatedly until the song is over.  Any questions or comments e-mail me.





Comments


Popular Offspring tabs & chords
End Of The Line Bass Tabs
Forever And A Day 2 Bass Tabs
Blackball 2 Tabs
Cum Out Swinging Tabs
Dammit, I Changed Again 2 Tabs
Leve It B Hind Tabs
Self Esteem 6 Tabs
Smash Tabs
Take It Like A Man Tabs
Me And My Old Lady Ukulele


Song lyrics



↑ Back to top | Tablatures and chords are parodies/interpretations of the original songs. You may use it for private study, scholarship, research or language learning purposes only
© 2014 AZChords.com Contact us | Privacy policy | DMCA | Add/correct tabs | Request tabs | Top 50 tabs