>
 >
Take It Like A Man

Take It Like A Man Guitar Tabs

Offspring - Take It Like A Man chords, tabs, tablatures, lyrics

Guitar lessons | Add/correct | Request | Top 50 tabs Artists:  A B C D E F G H I J K L M N O P Q R S T U V W X Y Z 0-9

Take It Like A Man Guitar Tabs – Offspring

CD, Sheet music, Poster

Do you like Take It Like A Man? Share with your friends now
Bass TabsBass Tabs v2Tabs
intro
e---------------------------------------
B-----777-5-0-5-777-5-0-5------
G-----000-0-0-0-000-0-0-0-----
D-------------------------------------
A--------------------------------------
E---------------------------------------repeat a couple times

intro cont...
e---------------------------------
B---------------------------------
G-------7--------5----------5---
D-------7--------5------5---5---
A-------5x3----3------5---3---
E------------------------3--------repeat a few times, use this for verses with palm mute,
                                      use with chourus without





Comments


Popular Offspring tabs & chords
Intermission Bass Tabs
The Kids Aren't Alright Bass Tabs
Hammerhead Chords
Self Esteem 1 Chords
Americana Right Tabs
Dammit, I Changed Again 2 Tabs
Dirty Magic 3 Tabs
Dirty Magic 4 Tabs
Never Gonna Find Me 1 Tabs
Vultures Tabs


Song lyrics



↑ Back to top | Tablatures and chords are parodies/interpretations of the original songs. You may use it for private study, scholarship, research or language learning purposes only
© 2014 AZChords.com Contact us | Privacy policy | DMCA | Add/correct tabs | Request tabs | Top 50 tabs