>
 >
Starin At The Sun

Starin At The Sun Guitar Tabs

Offspring - Starin At The Sun chords, tabs, tablatures, lyrics

Guitar lessons | Add/correct | Request | Top 50 tabs Artists:  A B C D E F G H I J K L M N O P Q R S T U V W X Y Z 0-9

Starin At The Sun Guitar Tabs – Offspring

CD, Sheet music, Poster

Do you like Starin At The Sun? Share with your friends now
Tabs
here it is


(00:00) Intro 
e|----------------------------------|
B|----------------------------------|
G|--7-7-7-5-7-7-7-5-7-7-7-5-7-7-7-5-|
D|--7-7-7-5-7-7-7-5-7-7-7-5-7-7-7-5-|
A|--5-5-5-3-5-5-5-3-5-5-5-3-5-5-5-3-|
E|----------------------------------|
  \______________________________/
     Palm muted                                                                            


(00:03) Verse 1st part                   (00:12)
e|-------Repeat x3----------------------|-----------------------------------------|
B|--------------------------------------|-----------------------------------------|
G|--7-7-7-7-10-10-10-10---------5-5-5-6-|-10-10-10-10-10-10-----------------------|
D|--7-7-7-7-10-10-10-10-5-5-5-5-5-5-5-6-|-10-10-10-10-10-10--8-8-8-8-10-10-10-10--|
A|--5-5-5-5--8--8--8--8-5-5-5-5-3-3-3-4-|--8--8--8--8--8--8--8-8-8-8-10-10-10-10--|
E|----------------------3-3-3-3---------|--------------------6-6-6-6--8--8--8--8--|
   \__/   \______/    \____/  \________/  \_____________________________________/
   P.M.     P.M.       P.M.     P.M.                   Palm Muted

(00:16) Verse 2nd part                   (00:25)
e|------Repeat x3-----------------------|------------------------------------|
B|--------------------------------------|------------------------------------|
G|--7-7-7-7-10-10-10-10---------5-5-5-6-|-7--7-7-10--10-10-12--12-12-14---14-|
D|--7-7-7-7-10-10-10-10-5-5-5-5-5-5-5-6-|-7--7-7--x---x--x--x---x--x--x----x-|
A|--5-5-5-5--8--8--8--8-5-5-5-5-3-3-3-4-|-5--5-5--8---8--8-10--10-10-12---12-|
E|----------------------3-3-3-3---------|------------------------------------|
    \__/  \______/    \____/ 
    P.M.    P.M.       P.M.
                                                                          
(00:28) Chorus                           (00:38)
e|------Repeat x3-----------------------|------------------------------------|
B|--------------------------------------|------------------------------------|
G|--7-7-7-7-10-10-10-10---------5-5-5-6-|-7--7-7-10--10-10-12--12-12-14---14-|
D|--7-7-7-7-10-10-10-10-5-5-5-5-5-5-5-6-|-7--7-7--x---x--x--x---x--x--x----x-|
A|--5-5-5-5--8--8--8--8-5-5-5-5-3-3-3-4-|-5--5-5--8---8--8-10--10-10-12---12-|
E|----------------------3-3-3-3---------|------------------------------------|
    \__/  \______/    \____/ 
    P.M.    P.M.       P.M.


(00:42) Brake
e|-----------|
B|-----------|
G|-7-7-----7-|
D|-7-7-----7-|
A|-5-5-----5-|
E|-----------|

(00:44) Verse 1st part                (00:52)
e|-------Repeat x3----------------|---------------------------------------|
B|--------------------------------|---------------------------------------|
G|--7-7--7-7-10-10----------5-5-6-|-10--10--10--10------------------------|
D|--7-7--7-7-10-10-5--------5-5-6-|-10--10--10--10--8-8-8-8-10-10-10-10---|
A|--5-5--5-5--8--8-5--------3-3-4-|--8---8---8---8--8-8-8-8-10-10-10-10---|
E|-----------------3-3^3^3^-------|-----------------6-6-6-6--8--8--8--8---|


(00:54) Verse 2nd part                 (01:02)
e|-------Repeat x3-----------------|------------------------------------|
B|---------------------------------|------------------------------------|
G|--7-7---7----------------5-5-5-6-|-7--7-7-10--10-10-12--12-12-14---14-|
D|--7-7---7-3-3--3-5-5---5-5-5-5-6-|-7--7-7--x---x--x--x---x--x--x----x-|
A|--5-5---5-3-3--3-5-5---5-3-3-3-4-|-5--5-5--8---8--8-10--10-10-12---12-|
E|----------1-1--1-3-3---3---------|------------------------------------|

(01:05) Chorus
e|---------Repeat x2----------------------|
B|----------------------------------------|
G|----------10101010-12121212-------------|
D|-12121212-10101010-12121212-10-10-10-11-|
A|-12121212--8-8-8-8-10101010-10-10-10-11-|
E|-10101010--------------------8--8--8--9-|
     \____/    \___/    \___/
      P.M.      P.M.     P.M. 

(01:11) Verse 1st part                (01:19)
e|-------Repeat x3----------------|---------------------------------------|
B|--------------------------------|---------------------------------------|
G|--7-7--7-7-10-10----------5-5-6-|-10--10--10--10------------------------|
D|--7-7--7-7-10-10-5--------5-5-6-|-10--10--10--10--8-8-8-8-10-10-10-10---|
A|--5-5--5-5--8--8-5--------3-3-4-|--8---8---8---8--8-8-8-8-10-10-10-10---|
E|-----------------3-3^3^3^-------|-----------------6-6-6-6--8--8--8--8---|


(01:22) Verse 2nd part                 (01:30)
e|-------Repeat x3-----------------|------------------------------------|
B|---------------------------------|------------------------------------|
G|--7-7---7----------------5-5-5-6-|-7--7-7-10--10-10-12--12-12-14---14-|
D|--7-7---7-3-3--3-5-5---5-5-5-5-6-|-7--7-7--x---x--x--x---x--x--x----x-|
A|--5-5---5-3-3--3-5-5---5-3-3-3-4-|-5--5-5--8---8--8-10--10-10-12---12-|
E|----------1-1--1-3-3---3---------|------------------------------------|

(01:33) Chorus
e|--------Repeat x2-----------------------|
B|----------------------------------------|
G|----------10101010-12121212-------------|
D|-12121212-10101010-12121212-10-10-10-11-|
A|-12121212--8-8-8-8-10101010-10-10-10-11-|
E|-10101010--------------------8--8--8--9-|
     \____/    \___/    \___/
      P.M.      P.M.     P.M. 


(01:39) Bridge
e|-------------------------------------------------------------------------------|
B|-------------------------------------------------------------------------------|
G|-7-------5--7-------5-5-5-6-7---------5-5-5-6--10-10-10-10---------------------|
D|-7-------5--7-------5-5-5-6-7---------5-5-5-6--10-10-10-10-8-8-8-8-10-10-10-10-|
A|-5-------3--5-------3-3-3-4-5---------3-3-3-4---8--8--8--8-8-8-8-8-10-10-10-10-|
E|-----------------------------------------------------------6-6-6-6--8--8--8--8-|

(01:49) verse 2nd part
e|-------Repeat x3-----------------|------------------------------------|
B|---------------------------------|------------------------------------|
G|--7-7---7----------------5-5-5-6-|-7--7-7-10--10-10-12--12-12-14---14-|
D|--7-7---7-3-3--3-5-5---5-5-5-5-6-|-7--7-7--x---x--x--x---x--x--x----x-|
A|--5-5---5-3-3--3-5-5---5-3-3-3-4-|-5--5-5--8---8--8-10--10-10-12---12-|
E|----------1-1--1-3-3---3---------|------------------------------------|

(02:00) Chorus
e|-------Repeat x3-----------------|
B|---------------------------------|
G|--7-7---7----------------5-5-5-6-|
D|--7-7---7-3-3--3-5-5---5-5-5-5-6-|
A|--5-5---5-3-3--3-5-5---5-3-3-3-4-|
E|----------1-1--1-3-3---3---------|


(02:08) Last riff
e|-----------------------------------------|---|
B|-----------------------------------------|---|
G|-----------10--10-10-12--12-12-14--14-14-|-7-|
D|-12--12-12--x---x--x--x---x--x--x---x--x-|-7-|
A|--x---x--x--8---8--8-10--10-10-12--14-14-|-5-|
E|-10--10-10-------------------------------|---|


Any ?s, comments, please let me know:



see ya!





Comments


Popular Offspring tabs & chords
A Lot Like Me Bass Tabs
Cant Repeat Bass Tabs
Change The World Bass Tabs
Lightning Rod Bass Tabs
No Hero 1 Bass Tabs
A Lot Like Me Tabs
Come Out And Play 1 Tabs
Hidden Track From Smash Tabs
One Hundred Punks Tabs
Self Esteem 4 Tabs


Song lyrics



↑ Back to top | Tablatures and chords are parodies/interpretations of the original songs. You may use it for private study, scholarship, research or language learning purposes only
© 2014 AZChords.com Contact us | Privacy policy | DMCA | Add/correct tabs | Request tabs | Top 50 tabs