>
 >
Special Delivery

Special Delivery Guitar Tabs

Offspring - Special Delivery chords, tabs, tablatures, lyrics

Guitar lessons | Add/correct | Request | Top 50 tabs Artists:  A B C D E F G H I J K L M N O P Q R S T U V W X Y Z 0-9

Special Delivery Guitar Tabs – Offspring

CD, Sheet music, Poster

Do you like Special Delivery? Share with your friends now
Bass TabsBass Tabs v2Bass Tabs v3ChordsTabsTabs v2Tabs v3
The Offspring


***********************************************
***********************************************


This is easy, but it sounds so cool!

Chorus
E------------------------------------------------------------------------------
B------------------------------------------------------------------------------
G--10---8--10-10---13--10--8--10------8----------------------------------------
D--10---8--10-10---13--10--8--10---6--8----------------------------------------
A---8---6---8--8---11---8--6---8---6--6----------------------------------------
E----------------------------------4-------------------------------------------

End of Chorus
E------------------------------------------------------------------------------
B------------------------------------------------------------------------------
G--6---3---8-------------------------------------------------------------------
D--6---3---8-------------------------------------------------------------------
A--4---1---6-------------------------------------------------------------------
E------------------------------------------------------------------------------

Interlude
   mmmm
E------------------------------------------------------------------------------
B------------------------------------------------------------------------------
G---------8/10--10-10----------------------------------------------------------
D--3333---8/10--10-10----------------------------------------------------------
A--3333---6/8----8--8----------------------------------------------------------
E--1111------------------------------------------------------------------------

m=palm muted

That's about all you need to know

-----------------------------------------------
-----------------------------------------------





Comments


Popular Offspring tabs & chords
Come Out And Play 4 Bass Tabs
Dirty Magic Bass Tabs
Me And My Old Lady 2 Bass Tabs
Not The One 1 Bass Tabs
I Choose Chords
Kristy Are You Doing Okay Chords
Slim Pickens Does The Right Thing And Rides The Bomb To Hell Chords
Come Out And Play 5 Tabs
Ixnay Intermission Tabs
Smash 1 Tabs


Song lyrics



↑ Back to top | Tablatures and chords are parodies/interpretations of the original songs. You may use it for private study, scholarship, research or language learning purposes only
© 2014 AZChords.com Contact us | Privacy policy | DMCA | Add/correct tabs | Request tabs | Top 50 tabs