» » »

Spare Me The Details Tabs (ver.2)

Artists:  A B C D E F G H I J K L M N O P Q R S T U V W X Y Z # 

Spare Me The Details Tabs (ver.2)

Offspring
Rating:
0/5 (0 votes)

Tabs too difficult? Try these video lessons and learn fast.
                The offspring
Spare me the details 

1st guitar (acoustic)-tuned E A D G B e
2nd guitar (electric)-tuned D A D G B e

Intro 4x on acoustic
e|------------------------------------------------------
B|------------------------------------------------------
G|-----------------8-8-x--6-6-x-------------------------
D|---6-6-x--6-6-x--8-8-x--6-6-x-------------------------
A|---6-6-x--6-6-x--6-6-x--4-4-x-------------------------
E|---4-4-x--4-4-x---------------------------------------

acoustic guitar fill 2x
e|----4--8--4-----6--3---3--4--1------------------------
B|--4-----------4---------------------------------------
G|------------------------------------------------------
D|------------------------------------------------------
A|------------------------------------------------------
E|------------------------------------------------------

Verse-pm 2x (2nd guitar)
e|------------------------------------------------------
B|------------------------------------------------------
G|-------------------8-8-8-8-8-8----6-6-6-6-6-6---------
D|---6-6-6-6-6-6-6---8-8-8-8-8-8----6-6-6-6-6-6---------
A|---6-6-6-6-6-6-6---6-6-6-6-6-6----4-4-4-4-4-4---------
D|---6-6-6-6-6-6-6--------------------------------------

e|------------------------------------------------------
B|------------------------------------------------------
G|-------------------6-6-6-6-6-6------------------------
D|---6-6-6-6-6-6-6---6-6-6-6-6-6---1-1-1-1-1------------
A|---6-6-6-6-6-6-6---4-4-4-4-4-4---1-1-1-1-1------------
D|---6-6-6-6-6-6-6-----------------1-1-1-1-1------------

Intro verse 4x on acoustic
e|------------------------------------------------------
B|------------------------------------------------------
G|-----------------8-8-x--6-6-x-------------------------
D|---6-6-x--6-6-x--8-8-x--6-6-x-------------------------
A|---6-6-x--6-6-x--6-6-x--4-4-x-------------------------
E|---4-4-x--4-4-x---------------------------------------

Acoustic guitar fill 2x
e|----4--8--4-----6--3---3--4--1------------------------
B|--4-----------4---------------------------------------
G|------------------------------------------------------
D|------------------------------------------------------
A|------------------------------------------------------
E|------------------------------------------------------




Chorus-played w. out lead 4x
e|------------------------------------------------------
B|------------------------------------------------------
G|-----------------8-8-x--6-6-x-------10-10-10--8-8-8---
D|---6-6-x--6-6-x--8-8-x--6-6-x-------10-10-10--8-8-8---
A|---6-6-x--6-6-x--6-6-x--4-4-x-------8--8--8---6-6-6---
E|---4-4-x--4-4-x---------------------------------------
			             ^
Another 2x with lead after chorus      on 4h time
e|------------------------------------------------------
B|------------------------------------------------------
G|-----------------8-8-x--6-6-x-------------------------
D|---6-6-x--6-6-x--8-8-x--6-6-x-------------------------
A|---6-6-x--6-6-x--6-6-x--4-4-x-------------------------
E|---4-4-x--4-4-x---------------------------------------

acoustic guitar fill 2x
e|----4--8--4-----6--3---3--4--1------------------------
B|--4-----------4---------------------------------------
G|------------------------------------------------------
D|------------------------------------------------------
A|------------------------------------------------------
E|------------------------------------------------------

Verse-pm 2x (2nd guitar)
e|------------------------------------------------------
B|------------------------------------------------------
G|-------------------8-8-8-8-8-8----6-6-6-6-6-6---------
D|---6-6-6-6-6-6-6---8-8-8-8-8-8----6-6-6-6-6-6---------
A|---6-6-6-6-6-6-6---6-6-6-6-6-6----4-4-4-4-4-4---------
D|---6-6-6-6-6-6-6--------------------------------------

e|------------------------------------------------------
B|------------------------------------------------------
G|-------------------6-6-6-6-6-6------------------------
D|---6-6-6-6-6-6-6---6-6-6-6-6-6---1-1-1-1-1------------
A|---6-6-6-6-6-6-6---4-4-4-4-4-4---1-1-1-1-1------------
D|---6-6-6-6-6-6-6-----------------1-1-1-1-1------------

Intro verse 4x on acoustic
e|------------------------------------------------------
B|------------------------------------------------------
G|-----------------8-8-x--6-6-x-------------------------
D|---6-6-x--6-6-x--8-8-x--6-6-x-------------------------
A|---6-6-x--6-6-x--6-6-x--4-4-x-------------------------
E|---4-4-x--4-4-x---------------------------------------

acoustic guitar fill 2x
e|----4--8--4-----6--3---3--4--1------------------------
B|--4-----------4---------------------------------------
G|------------------------------------------------------
D|------------------------------------------------------
A|------------------------------------------------------
E|------------------------------------------------------


Chorus-played w. out lead 4x
e|------------------------------------------------------
B|------------------------------------------------------
G|-----------------8-8-x--6-6-x-------10-10-10--8-8-8---
D|---6-6-x--6-6-x--8-8-x--6-6-x-------10-10-10--8-8-8---
A|---6-6-x--6-6-x--6-6-x--4-4-x-------8--8--8---6-6-6---
E|---4-4-x--4-4-x---------------------------------------
			   ^
	       		on 4h time

Bridge2nd guitar
e|------------------------------------------------------
B|------------------------------------------------------
G|------------------------------------------------------
D|---6~---6-6-6-6---------------------------------------
A|---6~---6-6-6-6---------------------------------------
D|---6~---6-6-6-6---------------------------------------

e|------------------------------------------------------
B|------------------------------------------------------
G|--10-10-10-10-----------8-8-8-8-8---5-5-5-5-5---------
D|--10-10-10-10--8-8-8-8--8-8-8-8-8---5-5-5-5-5---------
A|---8-8--8--8---8-8-8-8--6-6-6-6-6---3-3-3-3-3---------
D|---------------8-8-8-8--------------------------------

e|------------------------------------------------------
B|------------------------------------------------------
G|--10-10-10-10-----------8-8-8-8-8-8-8---6-6-6-6-6-6-6-
D|--10-10-10-10--8-8-8-8--8-8-8-8-8-8-8---6-6-6-6-6-6-6-
A|---8-8--8--8---8-8-8-8--6-6-6-6-6-6-6---4-4-4-4-4-4-4-
D|---------------8-8-8-8--------------------------------
 
2x with lead
e|------------------------------------------------------
B|------------------------------------------------------
G|-----------------8-8-x--6-6-x-------------------------
D|---6-6-x--6-6-x--8-8-x--6-6-x-------------------------
A|---6-6-x--6-6-x--6-6-x--4-4-x-------------------------
E|---4-4-x--4-4-x---------------------------------------

acoustic guitar fill 2x
e|----4--8--4-----6--3---3--4--1------------------------
B|--4-----------4---------------------------------------
G|------------------------------------------------------
D|------------------------------------------------------
A|------------------------------------------------------
E|------------------------------------------------------

Verse 2x (just bass)

Chorus-played w. out lead 4x
e|------------------------------------------------------
B|------------------------------------------------------
G|-----------------8-8-x--6-6-x-------------------------
D|---6-6-x--6-6-x--8-8-x--6-6-x-------------------------
A|---6-6-x--6-6-x--6-6-x--4-4-x-------------------------
E|---4-4-x--4-4-x---------------------------------------

	
Then chorus w/ distortion and acoustic for 12x

End on
e|-------
B|-------
G|-------
D|----6~-
A|----6~-
D|----6~-
            
Tabs too difficult? Try these video lessons and learn fast.




comments powered by Disqus
↑ Back to top | Tablatures and chords are parodies/interpretations of the original songs. You may use it for private study, scholarship, research or language learning purposes only