>
 >
Smash It Up

Smash It Up Guitar Tabs

Offspring - Smash It Up chords, tabs, tablatures, lyrics

Guitar lessons | Add/correct | Request | Top 50 tabs Artists:  A B C D E F G H I J K L M N O P Q R S T U V W X Y Z 0-9

Smash It Up Guitar Tabs – Offspring

CD, Sheet music, Poster

Do you like Smash It Up? Share with your friends now
Bass TabsChordsTabsTabs v2
SMASH IT UP
# acoustic intro #  X2    # end-acoustic intro #    *=play 25X
E---0---2---0---0---|     E------------------|
B---0---0---3---2---|     B------------------|
G---0---0---0---0---|     G----*-----5-5-5---|
D---2---2---2---2---|     D---2------5-5-5---|
A---2---2---2---2---|     A---2------3-3-3---|
E---0---0---0---0---|     E---0--------------|
:
# acoustic intro2 #  X3
E--------------------------------------------------------------|
B--------------------------------------------------------------|
G------------------7--7-7------------------------------5-5-5---|
D---5--5-5-5--5-5--7--7-7--7--7--2--2-2-2--2-2-2--2-2--5-5-5---|
A---5--5-5-5--5-5--5--5-5--7--7--2--2-2-2--2-2-2--2-2--3-3-3---|
E---3--3-3-3--3-3----------5--5--0--0-0-0--0-0-0--0-0----------|
:
# end-acoustic intro2 #
E-----------------------------------------------|
B-----------------------------------------------|
G------------------7--7-7------------distortion-|
D---5--5-5-5--5-5--7--7-7--7--7--2------on------|
A---5--5-5-5--5-5--5--5-5--7--7--2--------------|
E---3--3-3-3--3-3----------5--5--0--------------|
:
# chorus #  X2    *=play 8X                # verse #   X2    *=play 8X
E-------------------------------------|    E-------------------|
B-------------------------------------|    B--------*---*------|
G----------------------------------*--|    G----*--5---5----*--|
D---5---3--3--7---3--3--7---3--3--5---|    D---5---5---5---5---|
A---5---3--3--7---3--3--7---3--3--5---|    A---5---3---3---5---|
E---3---1--1--5---1--1--5---1--1--3---|    E---3-----------3---|
:
Play chorus, verse and chorus.
:
# end-chorus #      *=play 5X
E--------------------------------------------------------------------------|
B-----------------------------------------------------------------------*--|
G--------------------------7--7-7-7------------------------------------7---|
D--10--10-10-10--9--9-9-9--7--7-7-7--5--5-5-5--10--10-10-10--9--9-9-9--7---|
A--10--10-10-10--9--9-9-9--5--5-5-5--5--5-5-5--10--10-10-10--9--9-9-9--5---|
E---8---8--8--8--7--7-7-7------------3--3-3-3---8---8--8--8--7--7-7-7------|
:
# bridge #   /=slide up    ()=play 5X     (=bend up
E--------------------------------------------------------(------|
B------------------------------------------------------(12-15)--|
G----------7-7-7/9---9-0-0-12-0-0-9-0-0-12-0-0-9-0-12-0---------|
D---2-----------------------------------------------------------|
A---2-----------------------------------------------------------|
E---0-----------------------------------------------------------|
:                    \_________palm-muted_____________/
# bridge2 #  X4                     # bridge2 #   ()=play 3X
E----------------------------|      E-----------------------|
B----------------------------|      B-----------------------|
G-------------------9--9-9---|      G-----------9-9-9-9-9---|              
D---4--4-4-4--7--7--9--9-9---|      D--(9---7)--9-9-9-9-9---|             
A---4--4-4-4--7--7--7--7-7---|      A--(9---7)--7-7-7-7-7---|
E---2--2-2-2--5--5-----------|      E--(7---5)--------------|
:
to next page...
:
:
:
SMASH IT UP                                                               2/2
:
Play verse, chorus and end-chorus(end slower).
:
# outro #     *=play 5X
E----------------------------------------------------|
B---------*---------------*--------------------------|
G----*---5----*---*---*--5---------------5---5-5-4---|
D---3----5---5---5---3---5---5---5-3---3-5---5-------|
A---3----3---5---5---3---3---5---5-3---3-3---3-------|
E---1--------3---3---1-------3---3-1---1-------------|
:





Comments


Popular Offspring tabs & chords
Let It Right Bass Tabs
Original Prankster Chords
Mota Drum Tabs
All Along 2 Tabs
All I Want 2 Tabs
Atonomy Tabs
Can Get My Head Around You Tabs
Cool To Hate 2 Tabs
Gotta Get Away Tabs
Pass Me By Intro Tabs


Song lyrics



↑ Back to top | Tablatures and chords are parodies/interpretations of the original songs. You may use it for private study, scholarship, research or language learning purposes only
© 2014 AZChords.com Contact us | Privacy policy | DMCA | Add/correct tabs | Request tabs | Top 50 tabs