>
 >
Self Esteem 2

Self Esteem 2 Guitar Tabs

Offspring - Self Esteem 2 chords, tabs, tablatures, lyrics

Guitar lessons | Add/correct | Request | Top 50 tabs Artists:  A B C D E F G H I J K L M N O P Q R S T U V W X Y Z 0-9

Self Esteem 2 Guitar Tabs – Offspring

CD, Sheet music, Poster

Do you like Self Esteem 2? Share with your friends now
Bass TabsBass Tabs v2ChordsChords v2Drum TabsTabsTabs v2Tabs v3Tabs v4Tabs v5Tabs v6Tabs v7Tabs v8Ukulele
These are only the main riffs, i didnt have enough time to figure out the rest, ill subit it soon enough

intro + chorus(whooohoooyeaaheeah)
e -----------------------------
b -----------------------------
g -------101010-10-5-5-5-------
d -7-7-7-101010-10-5-5-5-555-5-
a -7-7-7--8-8-8--8-3-3-3-555-5-
E -5-5-5-----------------333-3-

  ----------------------
  ----------------------
  ----------------------
  -3-xxxxxxxx-33-55--5--
  -3-xxxxxxxx-33-55--5--
  -1-xxxxxxxx-11-33--3--

verses(first a bass peice and then this with the guitar)
e ---------------------------------------------------------
b ---------------------------------------------------------
g ---------------55555--5--------------------55555---------
d -77777--7-3333-55555--5-5555-77777--7-3333-55555---------
a -77777--7-3333-33333--3-5555-77777--7-3333-33333-5---5---
E -55555--5-1111----------3333-55555--5-1111-------3---3---
  {------------------------PM---------------------}





Comments


Popular Offspring tabs & chords
Gone Away 3 Bass Tabs
Ill Be Waiting Bass Tabs
Me And My Old Lady Bass Tabs
Not The One 1 Bass Tabs
Take It Like A Man Bass Tabs
Why Don't You Get A Job? 1 Bass Tabs
Gone Away Tabs
Next To You 1 Tabs
Pretty Fly 2 Tabs
Dont Pick It Up Ukulele


Song lyrics



↑ Back to top | Tablatures and chords are parodies/interpretations of the original songs. You may use it for private study, scholarship, research or language learning purposes only
© 2014 AZChords.com Contact us | Privacy policy | DMCA | Add/correct tabs | Request tabs | Top 50 tabs