>
 >
Pretty Fly 1

Pretty Fly 1 Guitar Tabs

Offspring - Pretty Fly 1 chords, tabs, tablatures, lyrics

Guitar lessons | Add/correct | Request | Top 50 tabs Artists:  A B C D E F G H I J K L M N O P Q R S T U V W X Y Z 0-9

Pretty Fly 1 Guitar Tabs – Offspring

CD, Sheet music, Poster

Do you like Pretty Fly 1? Share with your friends now
TabsTabs v2Tabs v3
||-------------|-------------||-----------|-----||------------------||---||
||-*-----------|-----------*-||-----------|-----||-*--r-12-r-12-r-*-||-r-||
||---4-4-4-----|-------9-7---||-4-4-4-----|-----||----e-11-e-11-e---||-e-||
||---4-4-4-4-7-|-9-9-9-9-7---||-4-4-4-4-7-|-9-r-||----s--9-s--9-s---||-s-||
||-*-2-2-2-4-7-|-9-9-9-7-5-*-||-2-2-2-4-7-|-9-r-||-*--t----t----t-*-||-t-||
||---------2-5-|-7-7-7-------||-------2-5-|-7-r-||------------------||---||

||---------------------||-----------|-----------||---------------------||
||-*-----------------*-||-----------|-----------||-*-----------------*-||
||---------9/10-9/10---||-7-7-7---7-|-9-9-9-7---||---------9/10-9/10---||
||---9-9-9-9/10-9/10---||-7-7-7-7-7-|-9-9-9-7-7-||---9-9-9-9/10-9/10---||
||-*-9-9-9-7/-8-7/-8-*-||-5-5-5-7-5-|-7-7-7-5-7-||-*-9-9-9-7/-8-7/-8-*-||
||---7-7-7-------------||-------5---|---------5-||---7-7-7-------------||
    
||-----------|-----------||---------------------||-----------|-----------||
||-----------|-----------||-*-----------------*-||-----------|-----------||
||-7-7-7---7-|-7-9-7-9-7-||---------9/10-9/10---||-7-7-7---7-|-9-9-9-7---||
||-7-7-7-7-7-|-7-9-7-9-7-||---9-9-9-9/10-9/10---||-7-7-7-7-7-|-9-9-9-7-7-||
||-5-5-5-7-5-|-5-7-5-7-5-||-*-9-9-9-7/-8-7/-8-*-||-5-5-5-7-5-|-7-7-7-5-7-||
||-------5---|-----------||---7-7-7-------------||-------5---|---------5-||

||-----------|---------------|-------------------|-----|| 
||-8-8-8---8-|-10-10-10---10-|-------------------|-----|| 
||-7-7-7-7-7-|--9--9--9-9--9-|-----11-10-9---7-9-|---r-|| 
||-5-5-5-7-5-|--7--7--7-9--7-|-9-9-11-10-9-9-7-9-|-9-e-||
||-------5---|----------7----|-9-9--9--8-7-9-5-7-|-9-s-||
||-----------|---------------|-7-7---------7-----|-7-t-|| 

||-------||-------------||-----------------||-------------|-------------||
||-*-r-*-||-*---r-r---*-||-----------------||-*-----------|-----------*-||
||---e---||-----e-e-----||-----------------||---4-4-4-----|-------9-7---||
||---s---||---9-s-s-7---||-9---------------||---4-4-4-4-7-|-9-9-9-9-7---||
||-*-t-*-||-*-9-t-t-7-*-||-9---------------||-*-2-2-2-4-7-|-9-9-9-7-5-*-||
||-------||---7-----5---||-7-pickscrape----||---------2-5-|-7-7-7-------||

||-----|---------||
||---r-|-r-------||
||-4-e-|-e---9-7-||
||-4-s-|-s-9-9-7-||
||-2-t-|-t-9-7-5-||
||-----|---7-----||
    
||---------------------||-----------|-----------||---------------------||
||-*-----------------*-||-----------|-----------||-*-----------------*-||
||---------9/10-9/10---||-7-7-7---7-|-9-9-9-7---||---------9/10-9/10---||
||---9-9-9-9/10-9/10---||-7-7-7-7-7-|-9-9-9-7-7-||---9-9-9-9/10-9/10---||
||-*-9-9-9-7/-8-7/-8-*-||-5-5-5-7-5-|-7-7-7-5-7-||-*-9-9-9-7/-8-7/-8-*-||
||---7-7-7-------------||-------5---|---------5-||---7-7-7-------------||

||-----------|-----------||---------------------||-----------|-----------||
||-----------|-----------||-*-----------------*-||-----------|-----------||
||-7-7-7---7-|-7-9-7-9-7-||---------9/10-9/10---||-7-7-7---7-|-9-9-9-7---||
||-7-7-7-7-7-|-7-9-7-9-7-||---9-9-9-9/10-9/10---||-7-7-7-7-7-|-9-9-9-7-7-||
||-5-5-5-7-5-|-5-7-5-7-5-||-*-9-9-9-7/-8-7/-8-*-||-5-5-5-7-5-|-7-7-7-5-7-||
||-------5---|-----------||---7-7-7-------------||-------5---|---------5-||

||-------------|-----------------||-------------------|-----|| 
||-*-8-8-8---8-|-10-10-10---10-*-||-------------------|-----|| 
||---7-7-7-7-7-|--9--9--9-9--9---||-----11-10-9---7-9-|---r-|| 
||---5-5-5-7-5-|--7--7--7-9--7---||-9-9-11-10-9-9-7-9-|-9-e-||
||-*-------5---|----------7----*-||-9-9--9--8-7-9-5-7-|-9-s-||
||-------------|-----------------||-7-7---------7-----|-7-t-||





Comments


Popular Offspring tabs & chords
Burn It Up Bass Tabs
Come Out Swinging Bass Tabs
No Brakes 2 Bass Tabs
The Meaning Of Life 1 Bass Tabs
Cant Get My Head Around You 1 Tabs
Change The World 2 Tabs
Intermission Tabs
Session Tabs
Time To Relax Tabs
All I Want Ukulele


Song lyrics



↑ Back to top | Tablatures and chords are parodies/interpretations of the original songs. You may use it for private study, scholarship, research or language learning purposes only
© 2014 AZChords.com Contact us | Privacy policy | DMCA | Add/correct tabs | Request tabs | Top 50 tabs