>
 >
One Fine Day 1

One Fine Day 1 Guitar Tabs

Offspring - One Fine Day 1 chords, tabs, tablatures, lyrics

Guitar lessons | Add/correct | Request | Top 50 tabs Artists:  A B C D E F G H I J K L M N O P Q R S T U V W X Y Z 0-9

One Fine Day 1 Guitar Tabs – Offspring

CD, Sheet music, Poster

Do you like One Fine Day 1? Share with your friends now
Bass TabsChordsTabsTabs v2Tabs v3Tabs v4Tabs v5Ukulele
HeterophobicTWAT

I found a few errors on the solo and other parts in the other tab but this should sort it.
Verse 
e|-------------------------------------|-------------------------------------| 
B|-------------------------------------|-------------------------------------| 
G|-44444444-66666666----------88888888-|-44444444-66666666-------------------| 
D|-44444444-66666666-44444444-88888888-|-44444444-66666666-4444444444444444--| 
A|-22222222-44444444-44444444-66666666-|-22222222-44444444-4444444444444444--| 
E|-------------------22222222----------|-------------------2222222222222222--| 
  PM........................................................................
                         

e|---------------------------------------------------------------------------| 
B|---------------------------------------------------------------------------| 
G|-4------6-------------8~-------------------------6---6---6-6--6------------| 
D|-4------6------8------8~-----6-6666666666666666--6---6---6-6--6------------| 
A|-2------4------8------6~-----6-6666666666666666--4---4---4-4--4------------| 
E|---------------6-------------4-4444444444444444----------------------------| 
                                 PM..............
Chorus (x3)                                 4th Time
e|----------------------------------------|-------------------------------------| 
B|----------------------------------------|-------------------------------------| 
G|-----------4-4-4-4-4-6-6-6-6-6----------|-----------4-4-4-4-4-6-6-6-6-6-4-4-4-| 
D|-4-4-4-4-4-4-4-4-4-4-6-6-6-6-6-4-4-4-4-4|-4-4-4-4-4-4-4-4-4-4-6-6-6-6-6-4-4-4-| 
A|-4-4-4-4-4-2-2-2-2-2-4-4-4-4-4-4-4-4-4-4|-4-4-4-4-4-2-2-2-2-2-4-4-4-4-4-4-4-4-| 
E|-2-2-2-2-2---------------------2-2-2-2-2|-2-2-2-2-2---------------------2-2-2-| 


Solo
e|-------------------------------------|
B|-------------------------------------|
G|-------------------------------------|
D|--------4-1---------1-4--------3-6-4-|
A|------------4-2-2-2------4-4-4-------|
E|-2-2--2------------------------------|

e|---------------------------------------------|
B|---------------------------------------------|
G|---------------------------------------------|
D|--------4-1---------1-4--------3-6-8-6-4-----|
A|------------4-2-2-2------4-4-4-----------6-4-|
E|-2-2--2--------------------------------------|
 

Verse 2
e|-------------------------------------|-------------------------------------| 
B|-------------------------------------|-------------------------------------| 
G|-44444444-66666666----------88888888-|-44444444-66666666-------------------| 
D|-44444444-66666666-44444444-88888888-|-44444444-66666666-4444444444444444--| 
A|-22222222-44444444-44444444-66666666-|-22222222-44444444-4444444444444444--| 
E|-------------------22222222----------|-------------------2222222222222222--| 
  PM........................................................................

e|---------------------------------------------------------------------------| 
B|---------------------------------------------------------------------------| 
G|-44444444-66666666----------88888888-------------------8---8---8-8--8------| 
D|-44444444-66666666-88888888-88888888-6666666666666666--8---8---8-8--8------| 
A|-22222222-44444444-88888888-66666666-6666666666666666--6---6---6-6--6------| 
E|-------------------66666666----------4444444444444444----------------------| 
   PM.................................

Chorus (x3)                                 4th Time
e|----------------------------------------|-------------------------------------| 
B|----------------------------------------|-------------------------------------| 
G|-----------4-4-4-4-4-6-6-6-6-6----------|-----------4-4-4-4-4-6-6-6-6-6-4-4-4-| 
D|-4-4-4-4-4-4-4-4-4-4-6-6-6-6-6-4-4-4-4-4|-4-4-4-4-4-4-4-4-4-4-6-6-6-6-6-4-4-4-| 
A|-4-4-4-4-4-2-2-2-2-2-4-4-4-4-4-4-4-4-4-4|-4-4-4-4-4-2-2-2-2-2-4-4-4-4-4-4-4-4-| 
E|-2-2-2-2-2---------------------2-2-2-2-2|-2-2-2-2-2---------------------2-2-2-| 
 

Solo
e|-------------------------------------|
B|-------------------------------------|
G|-------------------------------------|
D|--------4-1---------1-4--------3-6-4-|
A|------------4-2-2-2------4-4-4-------|
E|-2-2--2------------------------------|

e|---------------------------------------------|
B|---------------------------------------------|
G|---------------------------------------------|
D|--------4-1---------1-4--------3-6-8-6-4-----|
A|------------4-2-2-2------4-4-4-----------6-4-|
E|-2-2--2--------------------------------------|
 

Brake 
e|-------------------------------------|---------------------------------------| 
B|-------------------------------------|---------------------------------------| 
G|-------------4-4-xx-6-xx-6-x-6-x-----|-------------4-4-xx-6-xx-6-x-6-x-11-11-| 
D|-4-xx-4-x-4x-4-4-xx-6-xx-6-x-6-x-4-4-|-4-xx-4-x-4x-4-4-xx-6-xx-6-x-6-x-11-11-| 
A|-4-xx-4-x-2x-2-2-xx-4-xx-4-x-4-x-4-4-|-4-xx-4-x-2x-2-2-xx-4-xx-4-x-4-x-9--9--| 
E|-2-xx-2-x-2x---------------------2-2-|-2-xx-2-x-2x---------------------------| 
   

Chorus (x3)                                 4th Time
e|----------------------------------------|-------------------------------------| 
B|----------------------------------------|-------------------------------------| 
G|-----------4-4-4-4-4-6-6-6-6-6----------|-----------4-4-4-4-4-6-6-6-6-6-4-4-4-| 
D|-4-4-4-4-4-4-4-4-4-4-6-6-6-6-6-4-4-4-4-4|-4-4-4-4-4-4-4-4-4-4-6-6-6-6-6-4-4-4-| 
A|-4-4-4-4-4-2-2-2-2-2-4-4-4-4-4-4-4-4-4-4|-4-4-4-4-4-2-2-2-2-2-4-4-4-4-4-4-4-4-| 
E|-2-2-2-2-2---------------------2-2-2-2-2|-2-2-2-2-2---------------------2-2-2-| 
 

Ending riff 
e|--------------------------|------------------------------------------------| 
B|--------------------------|------------------------------------------------| 
G|-6-6-6-6-6-6--------------|-6xx-6xx-6-6--6---------------------------------| 
D|-6-6-6-6-6-6-4-4-4-4-4-4--|-6xx-6xx-6-6--6--4------------------------------| 
A|-4-4-4-4-4-4-4-4-4-4-4-4--|-4xx-4xx-4-4--4--4------------------------------| 
E|-------------2-2-2-2-2-2--|-----------------2------------------------------|





Comments


Popular Offspring tabs & chords
Hey Joe 2 Bass Tabs
Kick Him When Hes Down 2 Bass Tabs
Cant Repeat Chords
Jennifer Lost The War Drum Tabs
Dirt Magic Tabs
Dirty Magic 4 Tabs
Heavy Metal Tabs
Session 1 Tabs
She's Got Issues 2 Tabs
All I Want 2 Ukulele


Song lyrics



↑ Back to top | Tablatures and chords are parodies/interpretations of the original songs. You may use it for private study, scholarship, research or language learning purposes only
© 2014 AZChords.com Contact us | Privacy policy | DMCA | Add/correct tabs | Request tabs | Top 50 tabs