» » »

Not The One Tabs (ver.1)

Artists:  A B C D E F G H I J K L M N O P Q R S T U V W X Y Z # 

Not The One Tabs (ver.1)

Offspring
Rating:
0/5 (0 votes)

Tabs too difficult? Try these video lessons and learn fast.
                Not The One- The Offspring
Off of the “Smash” album 

	There are basically two riffs in this song that are played over
and over in different parts of the song. This is the breakdown of how it
goes.

Intro-   0:00
  riff 1  2x

Verse 1- 0:13
  riff 1  4x  with palm mute

Chorus-  0:26
  riff 2  2x
  riff 1  4x

Verse 2- 0:52
  riff 1  4x  with palm mute

Chorus-  1:05
  riff 2  2x
  riff 1  4x
  riff 2  2x  with palm mute
  riff 1  4x

Bridge-  2:13
  Bass only

Verse 3- 2:38
  riff 1  4x


	These are the riffs

	riff 1
E:---------------------------------------
B:---------------------------------------
G:--5-5-5--5-5-7-7-----------------------  
D:--5-5-5--5-5-7-7--7-7-7--7-7-7-7-------
A:--3-3-3--3-3-5-5--7-7-7--7-7-7-7-------
E:------------------5-5-5--5-5-5-5-------

	riff 2
E:---------------------------------------------------------
B:---------------------------------------------------------
G:------------4-4-5--5-5--5-5-5--5--5-5-5-7-7--------------
D:--7--7-7-7--4-4-5--5-5--5-5-5--5--5-5-5-7-7-7--7-7-7-7-7-
A:--7--7-7-7--2-2-3--3-3--3-3-3--3--3-3-3-5-5-7--7-7-7-7-7-
E:--5--5-5-5----------------------------------5--5-5-5-5-5-

	Verse 1
	Chorus
	Verse 2
	Chorus
	Verse 3
            
Tabs too difficult? Try these video lessons and learn fast.


comments powered by Disqus
↑ Back to top | Tablatures and chords are parodies/interpretations of the original songs. You may use it for private study, scholarship, research or language learning purposes only