>
 >
No Hero 2

No Hero 2 Bass Tabs

Offspring - No Hero 2 chords, tabs, tablatures, lyrics

Guitar lessons | Add/correct | Request | Top 50 tabs Artists:  A B C D E F G H I J K L M N O P Q R S T U V W X Y Z 0-9

No Hero 2 Bass Tabs – Offspring

CD, Sheet music, Poster

Do you like No Hero 2? Share with your friends now
Bass Tabs
Watch out for the rhythm in places. Just listen to the CD and you should get it.

Guitar Intro

Intro/Verse x6

G|-----------------------------------------------
D|-----------------------------------------------
A|------9-10-10-5-5-5-7-7-------5-5--------------
E|--7-7-------------------5-5-5-----7-7-7-7-7-7--

Pre-Chorus x1

G|----------------------------------------
D|----------------------------------------
A|--77777-------------------77777---------
E|--------77777-22222-77777-------77777---

Chorus x1

Chorus = *Main Bit x3, End Bit x1*

"Main Bit" 

G|----------------------					
D|----------------------					
A|--10-10-------777777--		
E|--------10-10---------

"End Bit" 

G|---------					
D|---------					
A|--99999--		
E|---------	

Intro/Verse x6

Pre-Chorus x1

Chorus x2

Bridge x1

Bridge = *Main Bit x5, End Bit x1, Main Bit x3, End Bit x1, Main Bit x4*

"Main Bit"

G|----------------------------------
D|----------------------------------
A|-2-2----------45--2-2---------54--
E|-----222-5-55---------222-555-----

"End Bit"

G|---------------					
D|--5-5-5-4-4-4--					
A|---------------		
E|---------------

Intro/Verse x6

Pre-Chorus x2

Chorus x2





Comments


Popular Offspring tabs & chords
Slim Pickens Does The Right Thing And Rides The Bomb To Hell 2 Bass Tabs
Pretty Fly For A White Guy Drum Tabs
52 Girls Tabs
Conspiracy Of One Tabs
Da Hui Tabs
I Got A Right Tabs
Me And My Old Lady Tabs
The Noose Tabs
The Worst Hangover Ever Tabs
Americana Ukulele


Song lyrics



↑ Back to top | Tablatures and chords are parodies/interpretations of the original songs. You may use it for private study, scholarship, research or language learning purposes only
© 2014 AZChords.com Contact us | Privacy policy | DMCA | Add/correct tabs | Request tabs | Top 50 tabs