>
 >
No Breaks 1

No Breaks 1 Guitar Tabs

Offspring - No Breaks 1 chords, tabs, tablatures, lyrics

Guitar lessons | Add/correct | Request | Top 50 tabs Artists:  A B C D E F G H I J K L M N O P Q R S T U V W X Y Z 0-9

No Breaks 1 Guitar Tabs – Offspring

CD, Sheet music, Poster

Do you like No Breaks 1? Share with your friends now
TabsTabs v2Tabs v3
INTRO A
E:-------------------------------------------------------:
B:-------------------------------------------------------:
G:-------------------------------------------------------:
D:--9-9-----9\------------------12-12-12-12\11-11/12-12\-:
A:--7-7-----7\5-5----5/7-7----7/10-10-10-10\-9--9-/10-10\-:
E:------------3-3----3/5-5----5/-------------------------:

INTRO B
E:-------------------------------------------------------:
B:-------------------------------------------------------:
G:-------------------------------------------------------:
D:--9-9-9-9-9-9-\---------------------12-12-12-12-\-11-11-/-12-12-\-:
A:--7-7-7-7-7-7-\5-5-5-5-5/7-7-7-7-7-/10-10-10-10-\-9--9--/-10-10-\-:
E:---------------3-3-3-3-3/5-5-5-5-5-/-------------------------:
PM                              .
Chorus
E:-----------------------------------------------------------:
B:-----------------------------------------------------------:
G:-----------------------------------------------------------:
D:-----------------7-7---7---77-\-5-5---5---5--5-5-4--5--7-77-:
A:-5-5---5---55-/-5-5---5---55-\-3-3---3---3--3-3-2--3--5-55-:
E:-3-3---3---33-/--------------------------------------------:

Chorus End 
E:----------------------------------------------:
B:----------------------------------------------:
G:----------------------------------------------:
D:--9--9-7--9---12-12-11--9--9-7--9---14-14-12--:
A:--7--7-5--7---10-10-9---7--7-5--7---12-12-10--:
E:----------------------------------------------:


B:-------:
G:-------:
D:-2----:
A:-2----:    Let Ring
E:-0----:


CHORUS END B
E:-----------------------------------:
B:-----------------------------------:
G:-----------------------------------:
D:--9--9-7--9---12-12-11--9--9-7--9\-:
A:--7--7-5--7---10-10-9---7--7-5--7\-:
E:-----------------------------------:





Comments


Popular Offspring tabs & chords
Lapd Bass Tabs
Pretty Fly For A White Guy Bass Tabs
So Alone 1 Bass Tabs
Hammerhead Chords
Amazed 2 Tabs
Blackball 2 Tabs
Defy You Tabs
Dirt Magic Tabs
Have You Ever 4 Tabs
Dirty Magic Ukulele


Song lyrics



↑ Back to top | Tablatures and chords are parodies/interpretations of the original songs. You may use it for private study, scholarship, research or language learning purposes only
© 2014 AZChords.com Contact us | Privacy policy | DMCA | Add/correct tabs | Request tabs | Top 50 tabs