>
 >
Never Gonna Find Me 1

Never Gonna Find Me 1 Guitar Tabs

Offspring - Never Gonna Find Me 1 chords, tabs, tablatures, lyrics

Guitar lessons | Add/correct | Request | Top 50 tabs Artists:  A B C D E F G H I J K L M N O P Q R S T U V W X Y Z 0-9

Never Gonna Find Me 1 Guitar Tabs – Offspring

CD, Sheet music, Poster

Do you like Never Gonna Find Me 1? Share with your friends now
Bass TabsTabsTabs v2
Never Gonna Find Me
                                     The offspring
X=dead string (scratch)
~=let ring
/= slide up
\= slide down
pm= palm mute

Intro 4x
e|---------------------------------------------------------
B|---------------------------------------------------------
G|-8-8-8-x-x-x---------------4-4-4-4/--11-11-11--8-8-8-----
D|-8-8-8-x-x-x--6-6-6-x-x-x--4-4-4-4/--11-11-11--8-8-8-----
A|-6-6-6-x-x-x--6-6-6-x-x-x--2-2-2-2/--9--9--9---6-6-6-----
D|--------------6-6-6-x-x-x--------------------------------

Verse-whole thing 2x
2x of this
e|---------------------------------------------------------
B|---------------------------------------------------------
G|--8-8-8-8-8-8---11-11--6-6-------------------------------
D|--8-8-8-8-8-8---11-11--6-6-------------------------------
A|--6-6-6-6-6-6---9--9---4-4-------------------------------
D|---------------------------------------------------------
1x of this
e|---------------------------------------------------------
B|---------------------------------------------------------
G|------------4-4--4---6-6--6-----8\-------------------------
D|-1~-4~-6~---4-4--4---6-6--6-----8\-------------------------
A|-1~-4~-6~---2-2--2---4-4--4-----6\-------------------------
D|-1~-4~-6~----pm-------pm---------------------------------
		         ^Slide down after 2x of whole verse
Intro Verse 4x
e|---------------------------------------------------------
B|---------------------------------------------------------
G|-8-8-8-x-x-x---------------4-4-4-4/--11-11-11--8-8-8-----
D|-8-8-8-x-x-x--6-6-6-x-x-x--4-4-4-4/--11-11-11--8-8-8-----
A|-6-6-6-x-x-x--6-6-6-x-x-x--2-2-2-2/--9--9--9---6-6-6-----
D|--------------6-6-6-x-x-x--------------------------------

Verse-whole thing 2x
2x of this
e|---------------------------------------------------------
B|---------------------------------------------------------
G|--8-8-8-8-8-8---11-11--6-6-------------------------------
D|--8-8-8-8-8-8---11-11--6-6-------------------------------
A|--6-6-6-6-6-6---9--9---4-4-------------------------------
D|---------------------------------------------------------
1x of this
e|---------------------------------------------------------
B|---------------------------------------------------------
G|------------4-4--4---6-6--6-----8\-----------------------
D|-1~-4~-6~---4-4--4---6-6--6-----8\-----------------------
A|-1~-4~-6~---2-2--2---4-4--4-----6\-----------------------
D|-1~-4~-6~----pm-------pm---------------------------------
		        ^Slide down after 2x of whole verse
Bridge (Break away…) 2x
e|---------------------------------------------------------
B|---------------------------------------------------------
G|--8-8-8-------4-4-4--------------------------------------
D|--8-8-8--6-6--4-4-4---1~---------------------------------
A|--6-6-6--6-6--2-2-2---1~---------------------------------
D|---------6-6----------1~---------------------------------

Bridge Cont. pm 2x
e|---------------------------------------------------------
B|---------------------------------------------------------
G|--8-8--8-8--8----------------4-4--4-4--4-----------------
D|--8-8--8-8--8--6-6--6-6--6---4-4--4-4--4---1-1-1-1-1-1---
A|--6-6--6-6--6--6-6--6-6--6---2-2--2-2--2---1-1-1-1-1-1---
E|-------pm------6-6--6-6--6--------pm-------1-1-1-1-1-1---
	         pm
Play 4x 
e|---------------------------------------------------------
B|---------------------------------------------------------
G|--8-8--8-8--8----------------4-4--4-4--4-----------------
D|--8-8--8-8--8--6-6--6-6--6---4-4--4-4--4---1-1-1-1-1-1---
A|--6-6--6-6--6--6-6--6-6--6---2-2--2-2--2---1-1-1-1-1-1---
E|---------------6-6--6-6--6-----------------1-1-1-1-1-1---

End on
e|-----
B|-----
G|-----
D|-1-~-
A|-1-~-
E|-1-~-





Comments


Popular Offspring tabs & chords
Hey Joe Bass Tabs
Secrets From The Underground Bass Tabs
Original Prankster Chords
Americana 3 Tabs
Americane Tabs
Come Out Swinging 3 Tabs
Dirty Magic (Intro) Tabs
Original Prankster 1 Tabs
Want You To Bad Tabs
Itll Be A Long Time Ukulele


Song lyrics



↑ Back to top | Tablatures and chords are parodies/interpretations of the original songs. You may use it for private study, scholarship, research or language learning purposes only
© 2014 AZChords.com Contact us | Privacy policy | DMCA | Add/correct tabs | Request tabs | Top 50 tabs