>
 >
Killboy Powerhead 1

Killboy Powerhead 1 Guitar Tabs

Offspring - Killboy Powerhead 1 chords, tabs, tablatures, lyrics

Guitar lessons | Add/correct | Request | Top 50 tabs Artists:  A B C D E F G H I J K L M N O P Q R S T U V W X Y Z 0-9

Killboy Powerhead 1 Guitar Tabs – Offspring

CD, Sheet music, Poster

Do you like Killboy Powerhead 1? Share with your friends now
Bass TabsTabsTabs v2
KILLBOY POWERHEAD
   (THE OFFSPRING)
     TABEADO POR DDG


 RIFF (A)
 ------------------------
 ------------------------
 --99-7-9-12-12-12-11-11-
 --99-7-9-12-12-12-11-11-                                El orden:
 --77-5-7-10-10-10--9-9--
 ------------------------                                 Riff A (x6)
                                                          Coro  (x1)
 RIFF (B)                                                 Riff B (x2) (x1) (x1)    
 -----------------------------                             Coro  (x1)
 -----------------------------                            Riff C (x4)
 --44-2-44-2-44-7-4---------9-                            Riff D (x1)
 --44-2-44-2-44-7-4---------9-                           Riff A  (x4)
 --22-0-22-0-22-5-2---------7-                           Coro  (x2) 
 -----------------------------                             Riff B (x4)
                                                          Riff A (x1)
 RIFF (C)            
 --------------------                                
 --------------------
 --------------------                                              
 -10-8-10-8-10-13-10-
 -10-8-10-8-10-13-10-
 --8-6-8--6--8-11-8--
 
 RIFF (D)
 --------------------
 --------------------
 --------------------
 -10-6-8-10-10-66-88-
 -10-6-8-10-10-66-88-
 --8-4-6--8--8-44-66-

 CORO
 -------------------
 -------------------
 --9-5-7---99-55-77-
 --9-5-7---99-55-77-
 --7-3-5---77-33-55-
 -------------------
  
 TABEADO X DDG





Comments


Popular Offspring tabs & chords
Genocide Bass Tabs
Half-truism Bass Tabs
Special Delivery 3 Bass Tabs
Totalimmortal Bass Tabs
Dont Pick It Up Chords
Come Out And Play 1 Drum Tabs
Have You Eva Tabs
Jennifer Lost The War 4 Tabs
No Brakes 2 Tabs
Hit That Ukulele


Song lyrics



↑ Back to top | Tablatures and chords are parodies/interpretations of the original songs. You may use it for private study, scholarship, research or language learning purposes only
© 2014 AZChords.com Contact us | Privacy policy | DMCA | Add/correct tabs | Request tabs | Top 50 tabs