>
 >
Kick Him When Hes Down

Kick Him When Hes Down Bass Tabs

Offspring - Kick Him When Hes Down chords, tabs, tablatures, lyrics

Guitar lessons | Add/correct | Request | Top 50 tabs Artists:  A B C D E F G H I J K L M N O P Q R S T U V W X Y Z 0-9

Kick Him When Hes Down Bass Tabs – Offspring

CD, Sheet music, Poster

Do you like Kick Him When Hes Down? Share with your friends now
Bass TabsBass Tabs v2
++++++++++++++++++++++++++++++++++++++++++
| The Offspring- Kick Him When He's Down |
++++++++++++++++++++++++++++++++++++++++++

Tuning: EADG

Intro
1.
G|------------------------------------------------------------|
D|-4~----4-2~--------4--4--4--4--4~----4-2~--------4--4--4--4-|
A|-------------2~----------------------------2~---------------|
E|-----------------22-22-22-22-------------------22-22-22-22--|

Verse
"Hey youre a Riddle"
2.
G|-------------------------------------------------------------------------|
D|-44444444-2222-----44444444-44444444-44444444-2222-----0000-----2222-----|
A|--------------2222--------------------------------2222-----0000-----2222-|--x2
E|-------------------------------------------------------------------------|

Chorus
"When the rain comes..."
3.
G|---------------------------------------------------------------------------------|
D|-4444-0000------2222-4444-0000------2222-4444-0000------2222-2222-2222-2222-2222-|
A|-----------0000----------------0000----------------0000--------------------------|--x2
E|---------------------------------------------------------------------------------|

Outro
4.
G|------------------------------------------------------------|
D|-4~----4-2~--------4--4--4--4--4~----4-2~--------4--4--4--4-|
A|-------------2~----------------------------2~---------------|
E|-----------------22-22-22-22-------------------22-22-22-22--|

Verse
"Hey everybody's supposed..."
5.
G|-------------------------------------------------------------------------|
D|-44444444-2222-----44444444-44444444-44444444-2222-----0000-----2222-----|
A|--------------2222--------------------------------2222-----0000-----2222-|--x2
E|-------------------------------------------------------------------------|

Chorus
"When the rain comes..."
6.
G|---------------------------------------------------------------------------------|
D|-4444-0000------2222-4444-0000------2222-4444-0000------2222-2222-2222-2222-2222-|
A|-----------0000----------------0000----------------0000--------------------------|--x2
E|---------------------------------------------------------------------------------|

2:06
Bridge
7.
G|-------------------------------------------------------|
D|-22222222-22222222-22222222-22222222-22222222-22222222-|
A|-------------------------------------------------------|
E|-------------------------------------------------------|

Verse
"Hey youre a Riddle..."
8.
G|-------------------------------------------------------------------------|
D|-44444444-2222-----44444444-44444444-44444444-2222-----0000-----2222-----|
A|--------------2222--------------------------------2222-----0000-----2222-|--x2
E|-------------------------------------------------------------------------|

Chorus
"When the rain comes..."
9.
G|---------------------------------------------------------------------------------|
D|-4444-0000------2222-4444-0000------2222-4444-0000------2222-2222-2222-2222-2222-|
A|-----------0000----------------0000----------------0000--------------------------|--x2
E|---------------------------------------------------------------------------------|

Outro
10.
G|---------------------------------------------------|
D|-2>------------------------------------------------|
A|---------------------------------------------------|
E|---------------------------------------------------|

Lyrics:

'Hey, you're a riddle',
I say as I move aside
(Like I really need your advice)
But you won't leave it alone
Little men try but don't get a lot done
Living in sin doesn't move me either way
I get a feeling you're so vague
Like I said before
Little men come when anything goes

When the rain comes I sit home and pray
Make it all numb
I wish it all away
All I really need is just somewhere to hide away
Kick him when he's down
Here alone I'll put up and fight
Kick him when he's down
Beat me all the way I'll take it all night
Kick him when he's down
Hey, don't worry, I'll get along home alright

Hey, everybody's supposed to be the same
So how come they're so lame?
It's like taking a fall
Keep on running back into that wall
Awake in a dream, get up and go to work
But I'm feeling like such a jerk
Like I said before
Little men come when everything goes

+++++++++++++++++++++++++++++++++
| RaiLeff                       |
+++++++++++++++++++++++++++++++++





Comments


Popular Offspring tabs & chords
Damn It I Changed Again 1 Bass Tabs
Lightning Rod Bass Tabs
Shes Got Issues 2 Bass Tabs
All I Want Chords
Cant Repeat Chords
Keep Them Seperated Tabs
Kristy Are You Doing Okay 1 Tabs
Original Prankster 7 Tabs
Starin At The Sun Tabs
Why Don't You Get A Job? 1 Tabs


Song lyrics



↑ Back to top | Tablatures and chords are parodies/interpretations of the original songs. You may use it for private study, scholarship, research or language learning purposes only
© 2014 AZChords.com Contact us | Privacy policy | DMCA | Add/correct tabs | Request tabs | Top 50 tabs