>
 >
Keep Them Seperated

Keep Them Seperated Guitar Tabs

Offspring - Keep Them Seperated chords, tabs, tablatures, lyrics

Guitar lessons | Add/correct | Request | Top 50 tabs Artists:  A B C D E F G H I J K L M N O P Q R S T U V W X Y Z 0-9

Keep Them Seperated Guitar Tabs – Offspring

CD, Sheet music, Poster

Do you like Keep Them Seperated? Share with your friends now
Tabs



    intro:
         E:----------------:
         B:----------------:
         G:---4---77-------:
         D:---4---77---4---:   8x
         A:---2---55---4---:
         E:------------2---:


    guitar thingy:
         E:------------------------------
         B:------------------------------
         G:------------------------------
         D:------0-2-3-2-0---------------     4x
         A:--2-2-----------3-2-2-2-3-2---
         E:------------------------------





Comments


Popular Offspring tabs & chords
Dont Pick It Up 2 Bass Tabs
Lapd Bass Tabs
So Alone Bass Tabs
What Happened To You? 2 Bass Tabs
All I Want Chords
Gotta Get Away Drum Tabs
Can Get My Head Around You Tabs
Cruising California Bumpin In My Trunk 1 Tabs
Heavy Metal 1 Tabs
Recording Splinter Tabs


Song lyrics



↑ Back to top | Tablatures and chords are parodies/interpretations of the original songs. You may use it for private study, scholarship, research or language learning purposes only
© 2014 AZChords.com Contact us | Privacy policy | DMCA | Add/correct tabs | Request tabs | Top 50 tabs