>
 >
Keep Em Separated 1

Keep Em Separated 1 Guitar Tabs

Offspring - Keep Em Separated 1 chords, tabs, tablatures, lyrics

Guitar lessons | Add/correct | Request | Top 50 tabs Artists:  A B C D E F G H I J K L M N O P Q R S T U V W X Y Z 0-9

Keep Em Separated 1 Guitar Tabs – Offspring

CD, Sheet music, Poster

Do you like Keep Em Separated 1? Share with your friends now
TabsTabs v2
this is my first tab, prolly my last. its as accurate
as i could get it, so if its not perfect, figure it
out yourself. i mean, sorry, ill try better next time.

pretty much throughout the whole song [chorus, verse...]
goes like this:

E-----------------------------------------
B-----------------------------------------
G-----------------------------------------
D---------9-----12-----7------------------
A---------9-----12-----7------------------
E---------7-----10-----5------------------

other people have told me that this works too:

E-----------------------------------------
B-----------------------------------------
G-----------------------------------------
D---------9-----12-----4------------------
A---------9-----12-----4------------------
E---------7-----10-----2------------------

i find the first one easier, you dont have to jump
around as much, and it sounds right. the prechorus
goes like this:

E-----------------------------------------
B-----------------------------------------
G---------9-----12-----7-----9------------
D---------9-----12-----7-----9------------
A---------7-----10-----5-----7------------
E-----------------------------------------

the second part of the chorus does the same basic
thing as i first listed, but a little different:

E-------------------------------------------
B-------------------------------------------
G-------------------------------------------
D---------9-----12-----7-----14-----10------
A---------9-----12-----7-----14-----10------
E---------7-----10-----5-----12-----8-------

then back to the same normal three chord riff.
okay, now for the scale:

E--------------------------------------------------------------
B--------------------------------------------------------------
G--------------------------------------------------------------
D--------------------------------------------------------------
A----------------6---7---9---7---6-----------------------------
E-------7---8--------------------------8---7---7---7---8---7---

thats preeeetty much it. i suggest listening to the
song first while reading the tab, itll prolly be a
lot easier to understand it that way. and listen for
the strumming and all that. good luck :]





Comments


Popular Offspring tabs & chords
Change The World Bass Tabs
No Hero 2 Bass Tabs
What Happened To You? Chords
D U I Tabs
Original Pranker Tabs
Pretty Fly (For A White Guy) 2 Tabs
Pretty Fly For A White Guy 6 Tabs
Session 2 Tabs
Staring At The Sun 2 Tabs
Nothingtown Ukulele


Song lyrics



↑ Back to top | Tablatures and chords are parodies/interpretations of the original songs. You may use it for private study, scholarship, research or language learning purposes only
© 2014 AZChords.com Contact us | Privacy policy | DMCA | Add/correct tabs | Request tabs | Top 50 tabs