>
 >
I Got A Right

I Got A Right Guitar Tabs

Offspring - I Got A Right chords, tabs, tablatures, lyrics

Guitar lessons | Add/correct | Request | Top 50 tabs Artists:  A B C D E F G H I J K L M N O P Q R S T U V W X Y Z 0-9

I Got A Right Guitar Tabs – Offspring

CD, Sheet music, Poster

Do you like I Got A Right? Share with your friends now
Bass TabsBass Tabs v2Tabs
Released: 1997
Track: 1

: - let ring
pm - palm mute


intro

|---------------------------|
|---------------------------|
|-5:-----------9-9-9-5---5--|
|-5:----5:-----9-9-9-5-5-5--|
|-3:----5:-----7-7-7-3-5-3--|
|-------3:-------------3----|

verse

|-----------------------------------------------------------|
|-----------------------------------------------------------|
|-9-9-9-5---5-9-9-9-5---5-9-9-9-5---5-7---7---7-9-9-9-5---5-|
|-9-9-9-5-5-5-9-9-9-5-5-5-9-9-9-5-5-5-7-7-7-7-7-9-9-9-5-5-5-|
|-7-7-7-3-5-3-7-7-7-3-5-3-7-7-7-3-5-3-5-7-5-7-5-7-7-7-3-5-3-|
|---------3-----------3-----------3-----5---5-----------3---|

chorus

|-----------------------------------------------------------------------------|
|-----------------------------------------------------------------------------|
|-9---9---9-7---7---7-5-5-------7-7--------9---9---9-7---7---7-5-5-------4:---|
|-9-9-9-9-9-7-7-7-7-7-5-5-5-5-5-7-7-7-7-7--9-9-9-9-9-7-7-7-7-7-5-5-5-5-5-4:---|
|-7-9-7-9-7-5-7-5-7-5-3-3-5-5-5-5-5-7-7-7--7-9-7-9-7-5-7-5-7-5-3-3-5-5-5-2:---|
|---7---7-----5---5-------3-3-3-----5-5-5----7---7-----5---5-------3-3-3------|

bridge
                 pm___________|         |________________________|
|----------------|-----------------------------------------------|
|----------------|-----------------------------------------------|
|----------------|-9-9-9-5---5-7---7---7-9-9-9-5---5-9-9-9-5---5-|
|-9--9-9--9-9--9-|-9-9-9-5-5-5-7-7-7-7-7-9-9-9-5-5-5-9-9-9-5-5-5-|
|-9--9-9--9-9--9-|-7-7-7-3-5-3-5-7-5-7-5-7-7-7-3-5-3-7-7-7-3-5-3-|
|-7--7-7--7-7--7-|---------3-----5---5-----------3-----------3---|

lyrics

anytime i want i got a right to move
no matter what they say
anytime i want i got a right to move
no matter what they say
cause i got a right, right to move
anytime i want, any ol'time
i got a right, right to move
anytime i want
anytime i want i got a right to sing
no matter what they say
anytime i want i got a right to sing
no matter what they say
cause i got a right, right to sing
anytime i want yes any ol' time
i got a right, right to sing
anytime i want





Comments


Popular Offspring tabs & chords
Da Hui 2 Bass Tabs
Huck It 2 Bass Tabs
Hypodermic Bass Tabs
No Brakes 2 Bass Tabs
Spare Me The Details 2 Chords
Cant Repeat 5 Tabs
Cum Out And Ply Tabs
Disclaimer 1 Tabs
Gone Away 2 Tabs
Smash Tabs


Song lyrics



↑ Back to top | Tablatures and chords are parodies/interpretations of the original songs. You may use it for private study, scholarship, research or language learning purposes only
© 2014 AZChords.com Contact us | Privacy policy | DMCA | Add/correct tabs | Request tabs | Top 50 tabs