» » »

Huck It Tabs (ver.2)

Artists:  A B C D E F G H I J K L M N O P Q R S T U V W X Y Z # 

Huck It Tabs (ver.2)

Offspring
Rating:
0/5 (0 votes)

Tabs too difficult? Try these video lessons and learn fast.
                intro

|-7------------8---|
|-----8---10-------|
|------------------|
|------------------|
|------------------|
|------------------|

|------------------|
|------------------|
|-9:-------9:------|
|-9:-------9:------|
|-7:-------7:------|
|------------------|

|-------------------------------------------------------------|
|-------------------------------------------------------------|
|-9-9-9-9-9-9-7-7-7-7-7-7-------------12-12-12-12-14-14-14-14-|
|-9-9-9-9-9-9-7-7-7-7-7-7-7-7-7-7-7-7-12-12-12-12-14-14-14-14-|
|-7-7-7-7-7-7-5-5-5-5-5-5-7-7-7-7-7-7-10-10-10-10-12-12-12-12-|
|-------------------------5-5-5-5-5-5-------------------------|

verse
                                  pm_______________________|
|-----------------------------------------------------------
|-----------------------------------------------------------
|-9:----12-11-12-9---12-11-12-7:----------------------------
|-9:----12-11-12-9---12-11-12-7:----5-5-5-5-5-5-7-7-7-7-7-7-
|-7:----10--9-10-7---10--9-10-5:----5-5-5-5-5-5-7-7-7-7-7-7-
|-----------------------------------3-3-3-3-3-3-5-5-5-5-5-5-

 ---------------------------------------------|
 ---------------------------------------------|
 -9:----12-11-12-9---12-11-12-7-7-7-7-7-7-7-7-|
 -9:----12-11-12-9---12-11-12-7-7-7-7-7-7-7-7-|
 -7:----10--9-10-7---10--9-10-5-5-5-5-5-5-5-5-|
 ---------------------------------------------|

chorus

|-----------------------------------------------------------------------------
|-----------------------------------------------------------------------------
|-------------12-12-14-14----------------12-12-12-12--------------12-12-14-14-
|-10-10-10-10-12-12-14-14-14-14-14-14-14-12-12-12-12--10-10-10-10-12-12-14-14-
|-10-10-10-10-10-10-12-12-14-14-14-14-14-10-10-10-10--10-10-10-10-10-10-12-12-
|--8--8--8--8-------------12-12-12-12-12---------------8--8--8--8-------------

 ----------------------------------------------------------------|
 ----------------------------------------------------------------|
 ----------------12-12-12-12----------------12-12-12-12----------|
 -14-14-14-14-14-12-12-12-12-14-14-14-14-14-12-12-12-12-14-12:---|
 -14-14-14-14-14-10-10-10-10-14-14-14-14-14-10-10-10-10-14-12:---|
 -12-12-12-12-12-------------12-12-12-12-12-------------12-10:---|

verse 2
                            pm_______________________|
|-----------------------------------------------------
|-----------------------------------------------------
|-----------------------7:----------------------------
|-2:----5-4-5-2---5-4-5-7:----5-5-5-5-5-5-7-7-7-7-7-7-
|-2:----5-4-5-2---5-4-5-5:----5-5-5-5-5-5-7-7-7-7-7-7-
|-0:----3-2-3-0---3-2-3-------3-3-3-3-3-3-5-5-5-5-5-5-

 ---------------------------------------|
 ---------------------------------------|
 -----------------------7-7-7-7-7-7-7-7-|
 -2:----5-4-5-2---5-4-5-7-7-7-7-7-7-7-7-|
 -2:----5-4-5-2---5-4-5-5-5-5-5-5-5-5-5-|
 -0:----3-2-3-0---3-2-3-----------------|

bridge
                            pm_______________________|
|-----------------------------------------------------
|-----------------------------------------------------
|-----------------------5-5-5-------------------------
|-2:----5-4-5-2---5-4-5-5-5-5-5-5-5-5-5-5-7-7-7-7-7-7-
|-2:----5-4-5-2---5-4-5-3-3-3-5-5-5-5-5-5-7-7-7-7-7-7-
|-0:----3-2-3-0---3-2-3-------3-3-3-3-3-3-5-5-5-5-5-5-
                          pm______|
 ---------------------------------------|
 ---------------------------------------|
 -----------------------7-7-7-7-7-7-7-7-|
 -2:----5-4-5-2---5-4-5-7-7-7-7-7-7-7-7-|
 -2:----5-4-5-2---5-4-5-5-5-5-5-5-5-5-5-|
 -0:----3-2-3-0---3-2-3-----------------|

outro

|-----|
|-----|
|-9\--|
|-9\--|
|-7\--|
|-----|
            
Tabs too difficult? Try these video lessons and learn fast.




comments powered by Disqus
↑ Back to top | Tablatures and chords are parodies/interpretations of the original songs. You may use it for private study, scholarship, research or language learning purposes only