>
 >
Hey Joe

Hey Joe Bass Tabs

Offspring - Hey Joe chords, tabs, tablatures, lyrics

Guitar lessons | Add/correct | Request | Top 50 tabs Artists:  A B C D E F G H I J K L M N O P Q R S T U V W X Y Z 0-9

Hey Joe Bass Tabs – Offspring

CD, Sheet music, Poster

Do you like Hey Joe? Share with your friends now
Bass TabsBass Tabs v2Tabs
->Hey Joe by The Offspring
 
# VERSE # ->Play: 4X
G-----------------------------------------------------------------|
D-----------------------------------------------------------------|
A---3-3-3-3---------------5-5-5-5---------------------------------|
E----------------3-3-3-3---------------5-5-5-5---0-0-0-0-0-0-0-0--|
                               
# VERSE2 # ->Play: 3X 
G-----------------------------------------------------|
D-----------------------------------------------------|
A-------3------------------5--------------------------|
E--0-0-----0-0--3---0-0----0-0--5----0-0-0-0-0-0-0-0--|
 
# BREAK #
G-------------------------------|
D-------------------------------|
A-------3-------5------5--------|
E--0-0---0-0----0-0----0-0--5---|
 
# END-BREAK # ->Play: 4X
G|--------------------|
D|--------------------|
A|--------5------3-3--|
E|---0-0---0-0--------|
 
->Play: VERSE, VERSE2, BREAK & END-BREAK. 

 # OUTRO # ->Play: 2X 
G--------------------------------------------------------------------|
D--------------------------------------------------------------------|
A-3-----------2-3-4-5--------------4-5-6--7-7-7----5-6--7-7-7-7-7-7-|
E---0-1-2-3-------------2-3-4-5-------------------7------------------|





Comments


Popular Offspring tabs & chords
Americana Bass Tabs
Kick Him When He's Down 2 Bass Tabs
Special Delivery 2 Bass Tabs
Amazed 1 Tabs
Burn It Up Tabs
Feelings 2 Tabs
Genocide 3 Tabs
Kids Arent Alright Tabs
Session 2 Tabs
Slim Pickens Does The Right Thing And Rides The Bomb To Hell 1 Tabs


Song lyrics



↑ Back to top | Tablatures and chords are parodies/interpretations of the original songs. You may use it for private study, scholarship, research or language learning purposes only
© 2014 AZChords.com Contact us | Privacy policy | DMCA | Add/correct tabs | Request tabs | Top 50 tabs