>
 >
Gotta Get Away 1

Gotta Get Away 1 Guitar Tabs

Offspring - Gotta Get Away 1 chords, tabs, tablatures, lyrics

Guitar lessons | Add/correct | Request | Top 50 tabs Artists:  A B C D E F G H I J K L M N O P Q R S T U V W X Y Z 0-9

Gotta Get Away 1 Guitar Tabs – Offspring

CD, Sheet music, Poster

Do you like Gotta Get Away 1? Share with your friends now
Bass TabsBass Tabs v2Bass Tabs v3ChordsChords v2Drum TabsTabsTabs v2Tabs v3Tabs v4Tabs v5Tabs v6Tabs v7Ukulele
This is a really easy song so you shouldn't have
any problems with it but if you do feel free to


INTRO:
E|----------------------------------||
B|-----8~-8~7~5~~~-----8~-8~10~5~~~-||
G|-7-7-7~-7~6~4~~~-7-7-7~-7~ 9~4~~~-||
D|-----5~-5~4~2~~~-----5~-5~ 7~2~~~-||
A|----------------------------------||
E|----------------------------------||


PRE-VERSE:
E|-----------------------------------------------------|
B|-----------------------------------------------------|
G|-----7-7-----7-7-----9-9-----9-9-----12-12-----14-14-|
D|-----7-7-----7-7-----9-9-----9-9-----12-12-----14-14-|
A|-----5-5-----5-5-----7-7-----7-7-----10-10-----12-12-|
E|-0-0-----0-0-----0-0-----0-0-----0-0-------0-0-------|

E|--------------------||
B|--------------------||
G|-9/10\9/10\9/10\9~~-||
D|-9/10\9/10\9/10\9~~-||
A|-7/ 8\7/ 8\7/ 8\7~~-||
E|--------------------||

VERSE:
  PM--|   PM--|   PM--|   PM--|   PM--|     PM--|
E|-----------------------------------------------------|
B|-----------------------------------------------------|
G|-----7-7-----7-7-----9-9-----9-9-----12-12-----14-14-|
D|-----7-7-----7-7-----9-9-----9-9-----12-12-----14-14-|
A|-----5-5-----5-5-----7-7-----7-7-----10-10-----12-12-|
E|-0-0-----0-0-----0-0-----0-0-----0-0-------0-0-------|

E|--------------------||
B|--------------------||
G|-9/10\9/10\9/10\9~~-||
D|-9/10\9/10\9/10\9~~-||
A|-7/ 8\7/ 8\7/ 8\7~~-||
E|--------------------||


CHORUS:
E|-------------------------------------||
B|-------------------------------------||
G|----------5-5-5-5-----------7-7-7-7--||
D|-2-2-2-2--5-5-5-5--5-5-5-5--7-7-7-7--||
A|-2-2-2-2--3-3-3-3--5-5-5-5--5-5-5-5--||
E|-0-0-0-0-----------3-3-3-3-----------||



HERE'S THE ORDER:

INTRO:     2X
PRE-VERSE: 2X
VERSE:     4X
CHORUS:    4X
PRE-VERSE: 2X
VERSE:     4X
CHORUS:    6X
INTRO:     2X
VERSE:     2X
CHORUS:    8X
END ON "E"
E|-----||
B|-----||
G|-----||
D|--2--||
A|--2--||
E|--0--||





Comments


Popular Offspring tabs & chords
Cant Get My Head Around You Bass Tabs
Defy You Bass Tabs
Leave It Behind Bass Tabs
Let It Right Bass Tabs
Dirty Magic 6 Tabs
Million Miles Away 3 Tabs
Pretty Fly 1 Tabs
Self Esteem 4 Tabs
Why Don't You Get A Job? 1 Tabs
Half-truism Ukulele


Song lyrics



↑ Back to top | Tablatures and chords are parodies/interpretations of the original songs. You may use it for private study, scholarship, research or language learning purposes only
© 2014 AZChords.com Contact us | Privacy policy | DMCA | Add/correct tabs | Request tabs | Top 50 tabs