>
 >
Gone Away 1

Gone Away 1 Guitar Tabs

Offspring - Gone Away 1 chords, tabs, tablatures, lyrics

Guitar lessons | Add/correct | Request | Top 50 tabs Artists:  A B C D E F G H I J K L M N O P Q R S T U V W X Y Z 0-9

Gone Away 1 Guitar Tabs – Offspring

CD, Sheet music, Poster

Do you like Gone Away 1? Share with your friends now
Bass TabsBass Tabs v2Bass Tabs v3Bass Tabs v4Bass Tabs v5Bass Tabs v6ChordsDrum TabsDrum Tabs v2Drum Tabs v3Drum Tabs v4TabsTabs v2Tabs v3Tabs v4Tabs v5Tabs v6Ukulele

Legend
------
 h  = hammer-on
p  = pull-off
b  = bend
r  = bend release
/  = slide up/down
<5> = natural harmonic
[5] = artifical harmonic
~  = vibrato
tr = trill

Chord Diagrams (low to high)
----- --------
         F  Bb Eb Ab C  F
E        X  7  9  9  9  X
G        3  5  5  4  X  X
D        X  5  7  7  7  X
A        5  7  7  6  X  X
E5type1  0  2  2  X  X  X
Eopen    0  2  2  1  0  0
Gopen    3  2  0  0  0  3
Dopen    X  X  0  2  3  2
Aopen    X  0  2  2  2  0
A5type1  X  0  2  2  X  X
E5type2  X  X  9  9  12 12
G(triad) X  X  12 12 12 X
D5type1  X  X  7  7  X  10
A5type2  X  X  7  9  10 X
E5type3  X  X  9  9  X  7
Gadd9    X  X  9  7  10 X
D5type2  X  X  7  7  X  5
A5type3  X  7  7  X  5  X

    E5type2                 G(triad)                D5type1
F |-12-12-12-12-12-12-12/-|-----------------------|-10-10-10-10-10-10-10--|
C |-12-12-12-12-12-12-12/-|-12-12-12-12-12-12-12\-|-10-10-10-10-10-10-10--|
Ab|--9--9--9--9--9--9--9/-|-12-12-12-12-12-12-12\-|--7--7--7--7--7--7--7--|
Eb|--9--9--9--9--9--9--9/-|-12-12-12-12-12-12-12\-|--7--7--7--7--7--7--7--|
Bb|-----------------------|-----------------------|-----------------------|
F |-----------------------|-----------------------|-----------------------|
    Rhy. Fig. 1 - Gtr. 1

    A5type2
F |-------------------------|
C |-10-10-10-10-10-10-10-10-|
Ab|--9--9--9--9--9--9--9--9-|
Eb|--7--7--7--7--7--7--7--7-|
Bb|-------------------------|
F |-------------------------|

    E                 G                 D                 A
F |-----------------|-----------------|-----------------|-----------------|
C |-9-9-9-9-9-9-9-9-|-----------------|-7-7-7-7-7-7-7-7-|-----------------|
Ab|-9-9-9-9-9-9-9-9-|-4-4-4-4-4-4-4-4-|-7-7-7-7-7-7-7-7-|-6-6-6-6-6-6-6-6-|
Eb|-9-9-9-9-9-9-9-9-|-5-5-5-5-5-5-5-5-|-7-7-7-7-7-7-7-7-|-7-7-7-7-7-7-7-7-|
Bb|-7-7-7-7-7-7-7-7-|-5-5-5-5-5-5-5-5-|-5-5-5-5-5-5-5-5-|-7-7-7-7-7-7-7-7-|
F |-----------------|-3-3-3-3-3-3-3-3-|-----------------|-5-5-5-5-5-5-5-5-|
    Rhy. Fig. 1A - Gtr. 2

F |-------------|--------------|---------------|------------|-------------|
C |-------------|--------------|---------------|------------|-------------|
Ab|-2h4--/9-----|------/7------|------/7---9\6-|------------|-------------|
Eb|-----2-------|-4h5-0--------|-2h4-0---------|-7---7---9\-|-2-----------|
Bb|-------------|--------------|---------------|------------|-------------|
F |-------------|--------------|---------------|------------|-------------|
    Riff 1 - Gtr. 1 - w/ Chorus pedal

    E5type1
F |----------|------------|-------------|------------|
C |----------|------------|-------------|------------|
Ab|----------|------------|-------------|------------|
Eb|-2--------|-(2)--------|-(2)---------|-(2)--------|
Bb|-2--------|-(2)--------|-(2)---------|-(2)--------|
F |-0--------|-(0)--------|-(0)---------|-(0)--------|
    Gtr. 2

    E5type3       Gadd9            D5type2           A5type3
F |-------7-----|-(7)------------|-----------5-----|----------------------|
C |-------------|---------10-----|-(10)------------|-5-----7b8--7h8p7-----|
Ab|-----9-------|-------7--------|--------7--------|------------------7/9-|
Eb|---9---------|-----9----------|------7----------|-----7----------------|
Bb|-------------|----------------|-----------------|---7------------------|
F |-------------|----------------|-----------------|----------------------|
    Rhy. Fig. 2 - Gtr. 1

    E5type3         Gadd9           D5type2           A5type1
F |-------7-----|-(7)------------|-----------5----0-|-----------------|
C |-------------|---------10-----|-(10)-----------0-|-----------------|
Ab|-9---9-------|-------7--------|--------7---------|-2-2-2-2-2-2-2-2-|
Eb|---9---------|-----9----------|------7-----------|-2-2-2-2-2-2-2-2-|
Bb|-------------|----------------|------------------|-0-0-0-0-0-0-0-0-|
F |-------------|----------------|------------------|-----------------|
Lyrics:
-- w/ last bar of Riff 1
Maybe in another life
I could find you there
Blown away before your time
I can't deal
It's so unfair
-- w/ Rhy. Fig. 1A, 2 times
And It feels,And It feels
like heaven is so far away
And it feels, and it feels
like the world is so cold
now that you've gone away
Interlude -- Rhy. Figs. 1 & 1A, 2 times
-- w/ E5type1, 4 bars
Leaving flowers on your grave
to show that i still care
cant bring back
whats taken from me
-- w/ Rhy. Fig. 2
I reach to the sky
and call out your name
and if I could trade I would
-- w/ Rhy. Fig. 1A, 4 times
And It feels, And It feels
like heaven is so far away
And it stinks, and it stinks
now the world is so cold
now that you've gone away
-- w/ Rhy. Fig. 2
I reach to the sky
and call out your name
and if I could trade I would
-- w/ Rhy. Fig. 1A, 5 times
And It feels, And It feels
like heaven is so far away
And it feels, and it feels
like the world is so cold
now that you've gone away

Then end with this:
    Atype2                    E5
F |-------------------------|-----------------|
C |-10-10-10-10-10-10-10-10-|-----------------|
Ab|--9--9--9--9--9--9--9--9-|-----------------|
Eb|--7--7--7--7--7--7--7--7-|-2---------------|
Bb|-------------------------|-2---------------|
F |-------------------------|-0---------------|





Comments


Popular Offspring tabs & chords
Da Hui 2 Bass Tabs
Dui Bass Tabs
I Got A Right Bass Tabs
No Brakes Bass Tabs
All Along 2 Tabs
Elders Tabs
Rise And Fall 2 Tabs
Spare Me The Details Tabs
The Kids Aren Alright Tabs
Amazed Ukulele


Song lyrics



↑ Back to top | Tablatures and chords are parodies/interpretations of the original songs. You may use it for private study, scholarship, research or language learning purposes only
© 2014 AZChords.com Contact us | Privacy policy | DMCA | Add/correct tabs | Request tabs | Top 50 tabs