>
 >
Fix You 3

Fix You 3 Guitar Tabs

Offspring - Fix You 3 chords, tabs, tablatures, lyrics

Guitar lessons | Add/correct | Request | Top 50 tabs Artists:  A B C D E F G H I J K L M N O P Q R S T U V W X Y Z 0-9

Fix You 3 Guitar Tabs – Offspring

CD, Sheet music, Poster

Do you like Fix You 3? Share with your friends now
Bass TabsChordsChords v2TabsTabs v2Tabs v3Tabs v4Ukulele
Hey Guys and Gals, this is an awesome song to play on acoustic. and you can pretty
much do whatever you want with it, but i've just put how i play it, so yeah. Knock
yourselves out :)


INTRO
e-----------------------------------------------|
B-----------------------------------------------|
G-----------------------------------------------|
D---------9--------9-9---------9--------9-9-----|
A--7-7------7---7--------7-7----7---7-----------|
E-----------------------------------------------|


RIFF 1
e---------------------------------------------------------------------------|
B---------------------------------------------------------------------------|
G---------------------------------------------------------------------------|
D------9------9-9---------9--------9-9--------9-------9-9-------9-------9-9-|
A--7-7---7--7--------7-7----7---7-------6-6-----6--6------6-6------6--6-----|
E---------------------------------------------------------------------------|

e-----------------------------------------------------------------------|
B-----------------------------------------------------------------------|
G-----------------------------------------------------------------------|
D-----------------------------------------------------------------------|
A------12------12-12-----12------12-12-----7-----7-7-----7------7-7-----|
E-10-10--10--10-----10-10--10--10------5-5---5--5----5-5---5--5---------|


RIFF 2
e-------------------------------------------------------------------|
B-------------------------------------------------------------------|
G-------------------------------------------------------------------|
D---9-9----9-9----9-9---9-9-----------------------------------------|
A---7-7----7-7----6-6---6-6-----12-12---- 12-12-------7-7------7-7--|
E-------------------------------10-10-----10-10-------5-5------5-5--|


CHORDS
E                  0 7 9 9 0 0
B                  7 9 9 8 0 0
Bm11/D         10 12 12 11 0 0
A                  5 7 7 6 0 0


Verse: (Play Riff 1)
She wakes up
Rage and grace
Pulling me closer
Pushing away
And me the sharpest thorn on your vine
Twisting and turning, we're all intertwined

Broken wing
Empty glass
Words that scream and bounce right back
She says, "You know, we'd all like to rearrange"

(Play Riff 2)


Chorus: (Play Chords)
E
I wish I could fix you
B
And make you how I want you
Bm11/D
I wish I could fix you
A
And I wish you could fix me

I wish I could heal you
And mend where you are broken
I wish I could heal you
And I wish you could heal me

Lalala (play Chords or Riff 2)

Verse: (Play Riff 1)
The beaming sunrise buries the night
The setting sun destroys the light
And she said, "Baby, I've got to get going"
Cutting each other without even knowing

(Play Chords)
She sees a million stars like holes in the sky
All God's tears, for her they cry
And I am in her rain

Chorus: (Play Chords)
I wish I could fix you
And make you how I want you
I wish I could fix you
And I wish you could fix me

I wish I could heal you
And mend where you are broken
I wish I could heal you
And I wish you could heal me

Ooooohhh ahhahaha (Play Chords)

Verse: (Play Riff 1)
Broken wing
Empty glass
Words that scream and bounce right back
She says, "You know, we'd all like to rearrange"

END





Comments


Popular Offspring tabs & chords
Nothingtown Chords
Race Against Myself Chords
Gone Away Drum Tabs
Atonomy Tabs
Dirt Magic Tabs
Dirty Magic 6 Tabs
Have You Ever Tabs
Original Prankster 7 Tabs
Staring At The Sun 1 Tabs
Tehran Tabs


Song lyrics



↑ Back to top | Tablatures and chords are parodies/interpretations of the original songs. You may use it for private study, scholarship, research or language learning purposes only
© 2014 AZChords.com Contact us | Privacy policy | DMCA | Add/correct tabs | Request tabs | Top 50 tabs