>
 >
Disclaimer 1

Disclaimer 1 Guitar Tabs

Offspring - Disclaimer 1 chords, tabs, tablatures, lyrics

Guitar lessons | Add/correct | Request | Top 50 tabs Artists:  A B C D E F G H I J K L M N O P Q R S T U V W X Y Z 0-9

Disclaimer 1 Guitar Tabs – Offspring

CD, Sheet music, Poster

Do you like Disclaimer 1? Share with your friends now
TabsTabs v2Tabs v3
|------------------------------------------------|
|----------------------------------2-----2--2----|
|---------------------------2---2--------------2-|
|-----------2---2-4-2-4-2-4-----------2----------|
|-4-2-4-2-4--------------------------------------|
|------------------------------------------------|

|------------------------------------------------|
|----------------------------------2-----2--2--0-|
|---------------------------2---2----------------|
|-----------2---2-4-2-4-2-4-----------2----------|
|-4-2-4-2-4--------------------------------------|
|------------------------------------------------|

|--------------------------------------------------------0-|
|-2-0-2-0-2----0-2-0-2-0-2----0-2-0-2-0-2----0-2-0-2-0-2---|
|-----------2--------------2--------------2----------------|
|----------------------------------------------------------|
|----------------------------------------------------------|
|----------------------------------------------------------|

|------------------------------------------------|
|----------------------------------2-----2--2----|
|---------------------------2---2--------------2-|
|-----------2---2-4-2-4-2-4-----------2----------|
|-4-2-4-2-4--------------------------------------|
|------------------------------------------------|

|------------------------------------------------|
|----------------------------------2-----2--2--0-|
|---------------------------2---2----------------|
|-----------2---2-4-2-4-2-4-----------2----------|
|-4-2-4-2-4--------------------------------------|
|------------------------------------------------|

|--------------------------------------------------------0-|
|-2-0-2-0-2----0-2-0-2-0-2----0-2-0-2-0-2----0-2-0-2-0-2---|
|-----------2--------------2--------------2----------------|
|----------------------------------------------------------|
|----------------------------------------------------------|
|----------------------------------------------------------|

|------------------------------------------------|
|----------------------------------2-----2--2----|
|---------------------------2---2--------------2-|
|-----------2---2-4-2-4-2-4-----------2----------|
|-4-2-4-2-4--------------------------------------|
|------------------------------------------------|

|-------------------------------------|
|-------2---2-2-------------2---2-2---|
|---------------2-------------------2-|
|-2-0-2---2-----------2-0-2---2-------|
|-------------------------------------|
|-------------------------------------|





Comments


Popular Offspring tabs & chords
D U I 2 Bass Tabs
Fix You 1 Chords
Change The World 1 Tabs
Conspiracy Of One Tabs
Cum Out And Ply Tabs
Hit That 3 Tabs
Kristy Are You Doing Okay Tabs
Lapd Tabs
Next To You 1 Tabs
Original Prankster 7 Tabs


Song lyrics



↑ Back to top | Tablatures and chords are parodies/interpretations of the original songs. You may use it for private study, scholarship, research or language learning purposes only
© 2014 AZChords.com Contact us | Privacy policy | DMCA | Add/correct tabs | Request tabs | Top 50 tabs