>
 >
Defy You 2

Defy You 2 Guitar Tabs

Offspring - Defy You 2 chords, tabs, tablatures, lyrics

Guitar lessons | Add/correct | Request | Top 50 tabs Artists:  A B C D E F G H I J K L M N O P Q R S T U V W X Y Z 0-9

Defy You 2 Guitar Tabs – Offspring

CD, Sheet music, Poster

Do you like Defy You 2? Share with your friends now
Bass TabsChordsTabsTabs v2Tabs v3Tabs v4Tabs v5Tabs v6Tabs v7Ukulele
PLEASE RATE MY TABS

intro/chorus


|----------------------------------------------------------------------
|----------------------------------------------------------------------
|-7/9-9-9-9---------------------------------------7/9-9-9-9------------
|-7/9-9-9-9-5---5-5-5-5--5/7-7-7-7-2--2-2-2-2-2---7/9-9-9-9-5--5-5-5-5-
|-5/7-7-7-7-5---5-5-5-5--5/7-7-7-7-2--2-2-2-2-2---5/7-7-7-7-5--5-5-5-5-
|-----------3---3-3-3-3--3/5-5-5-5-0--0-0-0-0-0-------------3--3-3-3-3-

 ------------------------------------------------------------------
 ------------------------------------------------------------------
 --------------------7/9-9-9-9-------------------------------------
 -7--5--7--2--5--2---7/9-9-9-9-5---5-5-5-5--5/7-7-7-7-2--2-2-2-2-2-
 -7--5--7--2--5--2---5/7-7-7-7-5---5-5-5-5--5/7-7-7-7-2--2-2-2-2-2-
 -5--3--5--0--3--0-------------3---3-3-3-3--3/5-5-5-5-0--0-0-0-0-0-

 ------------------------------------|
 ------------------------------------|
 -7/9-9-9-9--------------------------|
 -7/9-9-9-9-5---5-5-5-5--7---5---2:--|
 -5/7-7-7-7-5---5-5-5-5--7---5---2:--|
 -----------3---3-3-3-3--5---3---0:--|

riff by second guitar

|----------------------|
|-5-5-5-5-5-5--5-5/8\5-|
|----------------------|
|----------------------|
|----------------------|
|----------------------|

verse  PALM MUTE!!!!1

|-------------------------------------------------------------------------
|-------------------------------------------------------------------------
|-7/9-9-9-9---------------------------7/9-9-9-9------------------------12-
|-7/9-9-9-9-5-5-----5/7-7-7-7-2-2-----7/9-9-9-9-5-5-----5/7-7-7-7-2-2--12-
|-5/7-7-7-7-5-5-----5/7-7-7-7-2-2-----5/7-7-7-7-5-5-----5/7-7-7-7-2-2--10-
|-----------3-3-----3/5-5-5-5-0-0---------------3-3-----3/5-5-5-5-0-0-----
PALM MUTE !!!!!!!!
 -------------------------------------------------------------------------------|
 -------------------------------------------------------------------------------|
 -7/9-9-9-9---------------------------7/9-9-9-9---------------------------------|
 -7/9-9-9-9-5-5-----5/7-7-7-7-2-2-----7/9-9-9-9-5-5-----5/7-7-7-7--5/7-7-7--5-7-|
 -5/7-7-7-7-5-5-----5/7-7-7-7-2-2-----5/7-7-7-7-5-5-----5/7-7-7-7--5/7-7-7--5-7-|
 -----------3-3-----3/5-5-5-5-0-0---------------3-3-----3/5-5-5-5--3/5-5-5--3-5-|

bridge - PALM MUTE!!!!!!!!

|-------------------------------------------------------------------------------|
|-------------------------------------------------------------------------------|
|-----------------------------------------------5-5-5-5-5-5-5-5-7-7-7-7-7-7-7-7-|
|-2-2--2-2--2-2--2-2---2-0-0--0-0--0-0--0-0---0-5-5-5-5-5-5-5-5-7-7-7-7-7-7-7-7-|
|-----------------------------------------------3-3-3-3-3-3-3-3-5-5-5-5-5-5-5-5-|
|-------------------------------------------------------------------------------|

solo

|----------------------------------------------------------------------
|----------------------------------------------------------------------
|-/9-9-9-9-9-9--9-9/12\9--/9-9-9-9-9-9--9-9/12\9--/9-9-9-9-9-9--9/12\9-
|----------------------------------------------------------------------
|----------------------------------------------------------------------
|----------------------------------------------------------------------

 -----------------------------------------------------------------------|
 ---------------------------------------------------------------10-8-10-|
 -/9-9-9-9-9-9--9-9/12\9--/9-9-9-9-9-9--9-9/12\9--/9-9-9-9-9-9----------|
 -----------------------------------------------------------------------|
 -----------------------------------------------------------------------|
 -----------------------------------------------------------------------|
 
The offspring use an echo but you can pick it, i can

|--------------------------------------------------------------------
|--------------------------------------------------------------------
|--------------------------------------------------------------------
|-2-2--2-2--2-2--2-2---2-0-0--0-0--0-0--0-0---0----------------------
|-----------------------------------------------2-2--2-2--2-2--2-2---
|--------------------------------------------------------------------

 ---------------------------|
 ---------------------------|
 ---------------------------|
 ---------------------------|
 -2-3-3--3-3--3-3--3-3---3/-|
 ---------------------------|

play a few times
|---------------------------------------------------------------------|
|---------------------------------------------------------------------|
|-9-9-9-9-9-9-9-9-9\7-7-7-7-7-7-7-7-7---------------------------------|
|-9-9-9-9-9-9-9-9-9\7-7-7-7-7-7-7-7-7-5-5-5-5-5-5-5-5-7-7-7-7-7-7-7-7-|
|-7-7-7-7-7-7-7-7-7\5-5-5-5-5-5-5-5-5-5-5-5-5-5-5-5-5-7-7-7-7-7-7-7-7-|
|-------------------------------------3-3-3-3-3-3-3-3-5-5-5-5-5-5-5-5-|


THERE YOU GO DUDES OFFSPRING KICK MORE ASS THAN FRENCH TOAST,





Comments


Popular Offspring tabs & chords
Bad Habit 1 Bass Tabs
Feelings Bass Tabs
Self Esteem 2 Bass Tabs
Why Don't You Get A Job? 2 Bass Tabs
A Thousand Days 1 Tabs
Da Hui 2 Tabs
Denial Tabs
Have You Ever 4 Tabs
Original Prankster 4 Tabs
Feelings Ukulele


Song lyrics



↑ Back to top | Tablatures and chords are parodies/interpretations of the original songs. You may use it for private study, scholarship, research or language learning purposes only
© 2014 AZChords.com Contact us | Privacy policy | DMCA | Add/correct tabs | Request tabs | Top 50 tabs