» » »

Days Go By Chords (ver.1)

Artists:  A B C D E F G H I J K L M N O P Q R S T U V W X Y Z # 

Days Go By Chords (ver.1)

Offspring
Rating:
0/5 (0 votes)

Tabs too difficult? Try these video lessons and learn fast.
                Intro - D - D, E

Tabs (PART 1)

1|--------------------------------------------------------------------|
2|--------------------------------------------------------------------|
3|--------------------------------------------------------------------|
4|---12-11---11-9---9-7---7-7-9-7-6-----------12-11---11-9---9-14-14--| X2
5|-7-------7------7-----7-------------------7-------7------7----------|
6|--------------------------------------------------------------------|

Tab (2)

1|--------------------------------------------------------------------|
2|--------------------------------------------------------------------|
3|------9---7-----------------9---7---------------9---7---------------|
4|--7-9---9---9--7-6------7-9---9---9-7-6-----7-9---9---9-7-9-7-6-----| X2
5|-------------------7-------------------7----------------------------|
6|--------------------------------------------------------------------|

Verse:

E
Run to the light
         D
It won't save you tonight
        A
All our yesterdays
                     E
Are pictures lost in time


E
Never enough
       D
Towers crumble to dust
        A
Looking back on
                   E
The moments of our lives

Chorus:
         D
All your anger
         A
All your hurt
        E             Bm
Doesn't matter in the end
      D       A
Those days go by
       E
And we all start again

         D
What you had
             A
And what you lost
            E               Bm
They're all memories in the wind
      D       A
Those days go by
       E
And we all start again

Verse:
E
Stars still burn bright
        D
Seasons change overnight
      A
As we find our way
                        E
The times they come and go

E
Look back in love
          D
A new day rises above
       A
With a wind that comes
                  E
To carry you back home

Chorus
            
Tabs too difficult? Try these video lessons and learn fast.




comments powered by Disqus
↑ Back to top | Tablatures and chords are parodies/interpretations of the original songs. You may use it for private study, scholarship, research or language learning purposes only