» » »

Dammit I Changed Again Tabs (ver.2)

Artists:  A B C D E F G H I J K L M N O P Q R S T U V W X Y Z # 

Dammit I Changed Again Tabs (ver.2)

Offspring
Rating:
0/5 (0 votes)

Tabs too difficult? Try these video lessons and learn fast.
                Intro
e-----------
B-----------
G-----------
D------3----
A------3----
E------1----


Main Riff-Play twice

e--------------------------------------------------->
B--------------------------------------------------->
G--------------------------------------------------->
D------6-5-6--------6-5-6---------6-5-6-8-6-5-6----->  
A--8-----------4-------------6---------------------->
E--------------------------------------------------->
The riff is played twice before the verse starts


Chorus
e|--------------------------------
B|--------------------------------
G|--------66666666--------88888888
D|33333333666666666666666688888888
A|33333333444444446666666666666666
E|11111111--------44444444--------


Main Riff-Play twice

e--------------------------------------------------->
B--------------------------------------------------->
G--------------------------------------------------->
D------6-5-6--------6-5-6---------6-5-6-8-6-5-6----->  
A--8-----------4-------------6---------------------->
E--------------------------------------------------->

Pre Chorus

e|--------------------------------
B|--------------------------------
G|--------66666666--------88888888
D|33333333666666666666666688888888
A|33333333444444446666666666666666
E|11111111--------44444444--------

Chorus
e|--------------------------------
B|--------------------------------
G|--------66666666--------88888888   
D|33333333666666666666666688888888
A|33333333444444446666666666666666
E|11111111--------44444444--------

Guitar 2 

e--------------------------------------------------->
B--------------------------------------------------->
G--------------------------------------------------->
D------6-5-6--------6-5-6---------6-5-6-8-6-5-6----->  
A--8-----------4-------------6-------------------8-->
E--------------------------------------------------->


Bridge1 play once 
|--------------------------------------------------------------------------
|--------------------------------------------------------------------------
|--------------------------------------------------------------------------
|--11---11---11-------10---10---10--------8---8---8------------------------
|-----11---11-----11-----11---11-----11-----6---6-----6--------------------
|--------------------------------------------------------------------------

Bridge2 play three times
|-----------------------------------------------------------------------------
|-----------------------------------------------------------------------------
|-----------------------------------------------------------------------------
|--10---10---10-----11---11---11------10---10---10--------8---8---8-----------
|------8----8------8------11---11-----11----11---11-----11-----6---6-----6----
|-----------------------------------------------------------------------------

When the first guitar starts the bridge for the third time guitar 2 strums these chords 8 times each.
All palm muted.

e|--------------------------------
B|--------------------------------
G|--------66666666--------88888888   
D|33333333666666666666666688888888
A|33333333444444446666666666666666
E|11111111--------44444444--------

Chorus Again
e|--------------------------------
B|--------------------------------
G|--------66666666--------88888888   
D|33333333666666666666666688888888
A|33333333444444446666666666666666
E|11111111--------44444444--------

Then the Main riff

e--------------------------------------------------->
B--------------------------------------------------->
G--------------------------------------------------->
D------6-5-6--------6-5-6---------6-5-6-8-6-5-6----->  
A--8-----------4-------------6---------------------->
E--------------------------------------------------->


e------------------
B------------------
G------------------
D---3m------------3
A---3m------------3
E---1m------------1
            
Tabs too difficult? Try these video lessons and learn fast.


comments powered by Disqus
↑ Back to top | Tablatures and chords are parodies/interpretations of the original songs. You may use it for private study, scholarship, research or language learning purposes only