>
 >
Crossroads 1

Crossroads 1 Guitar Tabs

Offspring - Crossroads 1 chords, tabs, tablatures, lyrics

Guitar lessons | Add/correct | Request | Top 50 tabs Artists:  A B C D E F G H I J K L M N O P Q R S T U V W X Y Z 0-9

Crossroads 1 Guitar Tabs – Offspring

CD, Sheet music, Poster

Do you like Crossroads 1? Share with your friends now
Bass TabsTabsTabs v2
Intro:  (Do 4x) |-------1-1-1-------------------1-1-1-------------|
|-3-3-3-------1-----------3-3-3-------1-----3-3-3-|
|---------------3-3-2-2-2---------------3-3-------|
|-------------------------------------------------|
|-------------------------------------------------|
|-------------------------------------------------|

RIFF 1:

|-------------------------------------------------------|
|-------------------------------------------------------|
|-7-7-7-9-9-9-10-10-10-10-10-10-9-9-9-9-9-9-6-6-6-6-6-6-|
|-------------------------------------------------------|
|-5-5-5-7-7-7--8--8--8--8--8--8-7-7-7-7-7-7-4-4-4-4-4-4-|
|-------------------------------------------------------|


|-------------------------------------------------------|
|-------------------------------------------------------|
|-7-10-9-8-7-10-9-7-5---------2-2-2-3-------------------|
|-7-10-9-8-7-10-9-7-5---------2-2-2-3-------------5-5-7-|
|-5--8-7-6-5--8-7-5-3-3-3-3-3-0-0-0-1-1-1-1-1-1-1-5-5-7-|
|-------------------------------------------------3-3-5-|         

Chorus: play x4)
|---------|
|---------|
|-10----7-|
|-10-10-7-|
|--8-10-5-|
|-----8---|
Solo:  
|-----------------------------------------|
|-10-10-10-10---10-10-10b11r10-8----------|
|--------------------------------10p8-----|
|-------------------------------------9p8-|
|-----------------------------------------|
|-----------------------------------------|
|---------------------------------------------13p12-13p12-13p12-13p12-|
|---------------------11p10-11p10-11p10-11p10-------------------------|
|-10p8-10p8-10p8-10p8-------------------------------------------------|
|---------------------------------------------------------------------|
|---------------------------------------------------------------------|
|---------------------------------------------------------------------|


Riff A
|-------------------------------------------------------------------------|
|-------------------------------------------------------------------------|
|-9-10-9-7---10-9-7-5-5-5-------7-|-9-10-9-7---10-9-7-10---------------7--|
|-9-10-9-7---10-9-7-5-5-5---7-7-7-|-9-10-9-7----------10-pause-10-pause-7-|
|-7--8-7-5----8-7-5-3-3-3---7-7-5-|-7--8-7-5-----------8-------10-------5-|
|---------------------------5-5---|-----------------------------8---------|

Riff B
|----------------------------------------------|
|----------------------------------------------|
|-7-7-7-------------------------10-9---5-5-5-7-|  
Play this section x2
|-7-7-7-continue, till-10-10-10-10-9---5-5-5-7-|
|-5-5-5----------------10-10-10--8-7---3-3-3-5-|
|-----------------------8--8--8----------------|


|---------------------------------------------------------------------|
|---------------------------------------------------------------------|
|-5-------------3-----------5----------------------3------------------|
|-5-------------3-----------5----------------------3------------------|
|-3-------------1-----------3----------------------1------------------|
|---------------------------------------------------------------------|





Comments


Popular Offspring tabs & chords
Autonomy Bass Tabs
Beheaded Bass Tabs
Cant Get My Head Around You Bass Tabs
Hammerhead 3 Bass Tabs
Hammerhead Chords
Genocide 3 Tabs
Kick Him When He's Down Tabs
Lightning Rod Tabs
Self Esteem Intro Tabs
Me And My Old Lady Ukulele


Song lyrics



↑ Back to top | Tablatures and chords are parodies/interpretations of the original songs. You may use it for private study, scholarship, research or language learning purposes only
© 2014 AZChords.com Contact us | Privacy policy | DMCA | Add/correct tabs | Request tabs | Top 50 tabs