>
 >
Cool To Hate 1

Cool To Hate 1 Guitar Tabs

Offspring - Cool To Hate 1 chords, tabs, tablatures, lyrics

Guitar lessons | Add/correct | Request | Top 50 tabs Artists:  A B C D E F G H I J K L M N O P Q R S T U V W X Y Z 0-9

Cool To Hate 1 Guitar Tabs – Offspring

CD, Sheet music, Poster

Do you like Cool To Hate 1? Share with your friends now
Bass TabsDrum TabsTabsTabs v2Tabs v3
The Offspring
                                    Cool To Hate
     Intro 4x
e|----------------------------------------------------------------
B|----------------------------------------------------------------
G|--10-10---10-10---8--8----8--8----------------------------------
D|--10-10---10-10---8--8----8--8----------------------------------
A|--8---8---8--8----6--6----6--6----------------------------------
E|----------------------------------------------------------------

    Pre Chorus
e|----------------------------------------------------------------
B|----------------------------------------------------------------
G|--10~--10--10-8~--8-8-6~-6-6-8~-8-8--------------------------
D|--10~--10--10-8~--8-8-6~-6-6-8~-8-8--------------------------
A|---8~--8---8---6~--6-6-4~-4-4-6~-6-6--------------------------
E|----------------------------------------------------------------

e|----------------------------------------------------------------
B|----------------------------------------------------------------
G|--10~--10--10-8~--8-8-3-3-3-3-3-3-----5-5-5-5-5-5-------------
D|--10~--10--10-8~--8-8-3-3-3-3-3-3-----5-5-5-5-5-5-------------
A|---8~--8---8---6~--6-6-1-1-1-1-1-1-----3-3-3-3-3-3-------------
E|-----------------------------^--------------^-------------------
		     Pm            pm
	Chorus 2x
e|-----------------------------------------------------------------
B|-----------------------------------------------------------------
G|---10-10-10----------8-8-8---------6-6-6---------8-8-8-----------
D|---10-10-10--6-6-6---8-8-8--8-8-8--6-6-6--6-6-6--8-8-8--8-8-8----
A|---8--8--8---6-6-6---6-6-6--8-6-8--4-4-4--6-6-6--6-6-6--8-8-8----
E|-------------4-4-4----------6-6-6---------4-4-4---------6-6-6----

         Then 2x of this
e|-----------------------------------------------------------------
B|-----------------------------------------------------------------
G|----6-6-6----------8-8-8-----------------------------------------
D|----6-6-6--6-6-6---8-8-8--8-8-8----------------------------------
A|----4-4-4--6-6-6---6-6-6--8-8-8----------------------------------
E|-----------4-4-4----------6-6-6----------------------------------

        Intro Verse 6x
e|----------------------------------------------------------------
B|----------------------------------------------------------------
G|--10-10---10-10---8--8----8--8----------------------------------
D|--10-10---10-10---8--8----8--8----------------------------------
A|--8---8---8--8----6--6----6--6----------------------------------
E|----------------------------------------------------------------

         Pre Chorus
e|----------------------------------------------------------------
B|----------------------------------------------------------------
G|--10~--10--10-8~--8-8-6~-6-6-8~-8-8--------------------------
D|--10~--10--10-8~--8-8-6~-6-6-8~-8-8--------------------------
A|---8~--8---8---6~--6-6-4~-4-4-6~-6-6--------------------------
E|----------------------------------------------------------------


e|----------------------------------------------------------------
B|----------------------------------------------------------------
G|--10~--10--10-8~--8-8-3-3-3-3-3-3-----5-5-5-5-5-5-------------
D|--10~--10--10-8~--8-8-3-3-3-3-3-3-----5-5-5-5-5-5-------------
A|---8~--8---8---6~--6-6-1-1-1-1-1-1-----3-3-3-3-3-3-------------
E|-----------------------------^--------------^-------------------
		     Pm            pm

	Chorus 2x
e|-----------------------------------------------------------------
B|-----------------------------------------------------------------
G|---10-10-10----------8-8-8---------6-6-6---------8-8-8-----------
D|---10-10-10--6-6-6---8-8-8--8-8-8--6-6-6--6-6-6--8-8-8--8-8-8----
A|---8--8--8---6-6-6---6-6-6--8-6-8--4-4-4--6-6-6--6-6-6--8-8-8----
E|-------------4-4-4----------6-6-6---------4-4-4---------6-6-6----

           Then 2x of this
e|-----------------------------------------------------------------
B|-----------------------------------------------------------------
G|----6-6-6----------8-8-8-----------------------------------------
D|----6-6-6--6-6-6---8-8-8--8-8-8----------------------------------
A|----4-4-4--6-6-6---6-6-6--8-8-8----------------------------------
E|-----------4-4-4----------6-6-6----------------------------------

         Bridge-pm intro verse 3x
e|-----------------------------------------------------------------
B|-----------------------------------------------------------------
G|----10--10--10-10--10-10---8-8--8-8--8-8-------------------------
D|----10--10--10-10--10-10---8-8--8-8--8-8-------------------------
A|----8---8---8--8---8--8----6-6--6-6--6-6-------------------------
E|-------------pm------------------pm------------------------------

e|-----------------------------------------------------------------
B|-----------------------------------------------------------------
G|--3-3-3-3-3-3-----5-5-5-5-5-5------------------------------------
D|--3-3-3-3-3-3-----5-5-5-5-5-5------------------------------------
A|--1-1-1-1-1-1-----3-3-3-3-3-3------------------------------------
E|-------^--------------^------------------------------------------
        Pm	          pm

           Then pm chorus 4x

           Then 2x of this pm
e|-----------------------------------------------------------------
B|-----------------------------------------------------------------
G|----6-6-6----------8-8-8-----------------------------------------
D|----6-6-6--6-6-6---8-8-8--8-8-8----------------------------------
A|----4-4-4--6-6-6---6-6-6--8-8-8----------------------------------
E|-----------4-4-4----------6-6-6----------------------------------

Then
e|-----------------------------------------------------------------
B|-----------------------------------------------------------------
G|---10~-8---10~--10-8~--8---10~----------------------------------
D|---10~-8--10~--10-8~--8--10~----------------------------------
A|---8~--6--8~---8---6~--6--8~-----------------------------------
E|-----------------------------------------------------------------
Pre Chorus
e|----------------------------------------------------------------
B|----------------------------------------------------------------
G|--10~--10--10-8~--8-8-6~-6-6-8~-8-8--------------------------
D|--10~--10--10-8~--8-8-6~-6-6-8~-8-8--------------------------
A|---8~--8---8---6~--6-6-4~-4-4-6~-6-6--------------------------
E|----------------------------------------------------------------


e|----------------------------------------------------------------
B|----------------------------------------------------------------
G|--10~--10--10-8~--8-8-3-3-3-3-3-3-----5-5-5-5-5-5-------------
D|--10~--10--10-8~--8-8-3-3-3-3-3-3-----5-5-5-5-5-5-------------
A|---8~--8---8---6~--6-6-1-1-1-1-1-1-----3-3-3-3-3-3-------------
E|-----------------------------^--------------^-------------------
					Pm		       pm


Chorus 2x
e|-----------------------------------------------------------------
B|-----------------------------------------------------------------
G|---10-10-10----------8-8-8---------6-6-6---------8-8-8-----------
D|---10-10-10--6-6-6---8-8-8--8-8-8--6-6-6--6-6-6--8-8-8--8-8-8----
A|---8--8--8---6-6-6---6-6-6--8-6-8--4-4-4--6-6-6--6-6-6--8-8-8----
E|-------------4-4-4----------6-6-6---------4-4-4---------6-6-6----

Then 2x of this
e|-----------------------------------------------------------------
B|-----------------------------------------------------------------
G|----6-6-6----------8-8-8-----------------------------------------
D|----6-6-6--6-6-6---8-8-8--8-8-8----------------------------------
A|----4-4-4--6-6-6---6-6-6--8-8-8----------------------------------
E|-----------4-4-4----------6-6-6----------------------------------

End on 
e|---------
B|---------
G|-----10--
D|-----10--
A|-----8---
E|---------





Comments


Popular Offspring tabs & chords
A Lot Like Me 1 Bass Tabs
Hammerhead 2 Bass Tabs
Hurting As One Bass Tabs
Gne Away Tabs
Kids Arent Right Tabs
Million Miles Away 4 Tabs
One Fine Day 3 Tabs
Sessions Tabs
The Meaning Of Life 1 Tabs
Want You Bad 2 Tabs


Song lyrics



↑ Back to top | Tablatures and chords are parodies/interpretations of the original songs. You may use it for private study, scholarship, research or language learning purposes only
© 2014 AZChords.com Contact us | Privacy policy | DMCA | Add/correct tabs | Request tabs | Top 50 tabs