>
 >
Come Out Swinging 4

Come Out Swinging 4 Bass Tabs

Offspring - Come Out Swinging 4 chords, tabs, tablatures, lyrics

Guitar lessons | Add/correct | Request | Top 50 tabs Artists:  A B C D E F G H I J K L M N O P Q R S T U V W X Y Z 0-9

Come Out Swinging 4 Bass Tabs – Offspring

CD, Sheet music, Poster

Do you like Come Out Swinging 4? Share with your friends now
Bass TabsBass Tabs v2Bass Tabs v3Bass Tabs v4TabsTabs v2Tabs v3Tabs v4
++++++++++++++++++++++++++++++++++++
| The Offspring- Come Out Swinging |
++++++++++++++++++++++++++++++++++++

Tuning: EADG

Intro
1.
G|-------------------|
D|-2202-02455-5-0054-|
A|-------------------|--x4
E|-------------------|

2.
G|-------------------------------------------------|
D|-2222-222-22-222-222-22-222-222-22-222-22-2-22-2-|
A|-------------------------------------------------|
E|-------------------------------------------------|

Verse
"You brace and hold it all inside.."
3.
G|------------------------------|
D|------------------------------|
A|------------------------------|--x3
E|-000-002333-023555-023555-023-|

4.
G|-------------------------------|
D|-------------------------------|
A|-----------------------3-3-5-5-|
E|-000-002333-023555-555---------|

Chorus
"Dont turn away.."
5.
G|--------------------------------------------------------------|
D|-220202-------------------------220202------------------------|
A|----------------------3333-5555-----------------------3-3-5-5-|
E|--------33333333-55353-----------------33333333-55353---------|

Outro
6.
G|-------------------|
D|-2202-02455-5-0054-|
A|-------------------|--x2
E|-------------------|

Verse
"Your pacing's wearing out a line..."
7.
G|------------------------------|
D|------------------------------|
A|------------------------------|--x2
E|-000-002333-023555-023555-023-|

"And though you stand in place.."
8.
G|-----------------------------------------------------------|
D|-----------------------------------------------------------|
A|-----------------------------------------------------------|
E|-00000000-00000000-33333333-33333333-55555555-555555333333-|

"Smile's on your face.."
9.
G|-----------------------------------------------------|
D|-----------------------------------------------------|
A|---------------------------------------------3-3-5-5-|
E|-00000000-00000000-33333333-33333333-5x--5x----------|

Chorus
"Dont turn away.."
10.
G|--------------------------------------------------------------|
D|-220202-------------------------220202------------------------|
A|----------------------3333-5555-----------------------3-3-5-5-|
E|--------33333333-55353-----------------33333333-55353---------|

"Dont turn away.."
11.
G|--------------------------------------------------------|
D|-220202-------------------------------------------------|
A|----------------------3333-5555-3~----3~----2~----5~----|
E|--------33333333-55353----------------------------------|

Outro
12.
G|-------------------------------------------------------------------------|
D|-------------------------------------------------------------------------|
A|-------------------------------------------------------------------------|
E|-00000000-33333333-55555555-55555555-00000000-33333333-55555555-55555555-|

"Midnight..No sleep.."
13.
G|----------------------------------------------|
D|----------------------------------------------|
A|-77777777-33333333-00000000-55555555-22222222-|--x3
E|----------------------------------------------|

"Daylight, prove me today..."
14.
G|---------------------------------------------------------------|
D|---------------------------------------------------------------|
A|-777-777-333-333-000-000-555-555-22222222-22222222-22222222-2x-|
E|---------------------------------------------------------------|

Chorus
"Dont turn away.."
15.
G|--------------------------------------------------------------|
D|-220202-------------------------220202------------------------|
A|----------------------3333-5555-----------------------3-3-5-5-|
E|--------33333333-55353-----------------33333333-55353---------|

"Dont turn away.."
16.
G|-----------------------------------------------------------|
D|-220202----------------------------------------------------|
A|----------------------3333-5555-33333333-33333333-55555555-|
E|--------33333333-55353-------------------------------------|

"Leads you.. Leads you..."
17.
G|-----------------------------|
D|-------------------2--0--2x--|
A|-----------------------------|
E|--5--3--5--3--5--3-----------|

Lyrics:

You brace and hold it all inside
Its more than you can stand
No one around even tries
Tries to understand

Dont turn away, Dont turn away
Come out swinging, Come out alone
They're in your way, They're in your way
As long as youre swinging
Strong then youll get by

Your pacings wearing out a line
Right beside your bed
The scene replays a million times
Stuck inside your head

And though you stand in place
Your mind escapes, read between the lies
Smiles on your face, you fake like youre Ok

Dont turn away, Dont turn away
Come out swinging, Out on your own
They're in your way, They're in your way
You may be stinging
You'll get by
The pain inside, can guide your way...

Midnight, No sleep
Inside, you scream to no one
Hears you fall
Daylight, prove me today day...
One more try!

+++++++++++++++++++++++++++++++++
| RaiLeff                       |
+++++++++++++++++++++++++++++++++





Comments


Popular Offspring tabs & chords
Pretty Fly For A White Guy Live Bass Tabs
Smash Chords
Smash It Up Chords
Bloodstains Tabs
Don't Pick It Up Tabs
Fix You Tabs
One Fine Day Tabs
The Meaning Of Life 2 Tabs
Welcome To Intermission Tabs
Why Don't You Get A Job? 2 Tabs


Song lyrics



↑ Back to top | Tablatures and chords are parodies/interpretations of the original songs. You may use it for private study, scholarship, research or language learning purposes only
© 2014 AZChords.com Contact us | Privacy policy | DMCA | Add/correct tabs | Request tabs | Top 50 tabs