>
 >
Come Out Swinging 1

Come Out Swinging 1 Guitar Tabs

Offspring - Come Out Swinging 1 chords, tabs, tablatures, lyrics

Guitar lessons | Add/correct | Request | Top 50 tabs Artists:  A B C D E F G H I J K L M N O P Q R S T U V W X Y Z 0-9

Come Out Swinging 1 Guitar Tabs – Offspring

CD, Sheet music, Poster

Do you like Come Out Swinging 1? Share with your friends now
Bass TabsBass Tabs v2Bass Tabs v3Bass Tabs v4TabsTabs v2Tabs v3Tabs v4
Intro
e|-----------------------------------------------
B|-----------------------------------------------2x
G|------------------7----------7-----------------
D|-5-3-5--5-5-3-5-7-7-7--5-7-5-7-7---------------
A|-5-3-5--5-5-3-5-7-5-7--5-7-5-5-7---------------
E|-3-1-3--3-3-1-3-5---5--3-5-3---5---------------

Triplet riff

e|-----------------------------------------------
B|-----------------------------------------------
G|-----------------------------------------------
D|-5-3-5-3-5--5-3-5-3-5-5------------------------
A|-5-3-5-3-5--5-3-5-3-5-5------------------------
E|-3-3-3-3-3--3-3-3-3-3-3------------------------

<solo quiet> 2x

solo
e|-----------------------------------------------2x
B|-----------------------------------------------
G|-----------------------------------------------
D|-----------------------------------------------
A|-999999-777777-999999--12-11-7-9---------------
E|-----------------------------------------------

Solo ending

e|-----------------------------------------------
B|-----------------------------------------------
G|-----------------------------------------------
D|-5-5-5-5:--------------------------------------
A|-5-5-5-5:--------------------------------------
E|-3-3-3-3:--------------------------------------

Riff 2

e|-----------------------------------------------
B|-----------------------------------------------    
G|------------7-7-7-7---5---7--------7-----------2x
D|-5-3-5-3-5--7-7-7-7-7-5-7-7--5-7-5-7-7---------
A|-5-3-5-3-5--5-5-5-5-7-3-7-5--5-7-5-5-7---------
E|-3-3-3-3-3----------5---5----3-5-3---5---------

intro 2x

<solo quietly> 2x

Riff 3 
e|-----------------------------------------------
B|-----------------------------------------------
G|-----------------------5-5-5-5-5-5-5-5-5-5-----2x
D|-5-5-5-5-5--7-7-7-7-7--5-5-5-5-5-5-5-5-5-5-----
A|-5-5-5-5-5--7-7-7-7-7--3-3-3-3-3-3-3-3-3-3-----
E|-3-3-3-3-3--5-5-5-5-5--------------------------


e|-----------------------------------------------
B|-----------------------------------------------
G|-5-5--------3----------------------------------
D|-5-5--7-5-7-5----------------------------------
A|-3-3--7-5-7-5----------------------------------
E|------5-3-5------------------------------------

intro 2x

riff:1x
e|-----------------------------------------------
B|-----------------------------------------------
G|-7-777-7-777-5-555-5-555-7-777-7-777-5-555-7:--
D|-7-777-7-777-5-555-5-555-7-777-7-777-5-555-7:--
A|-5-555-5-555-3-333-3-333-5-555-5-555-3-333-5:--
E|-0-----0-----0-----0-----0-----0-----0-----0:--

solo 1x 


pm riff 1
  4x per chord all palm muted
e|-----------------------------------------------
B|-----------------------------------------------
G|-----7-----7-9-5-7-----------------------------
D|-7-9-7-9-7-7-9-5-7-7---------------------------
A|-7-9-5-9-7-5-7-3-5-7---------------------------
E|-5-7---7-5---------5---------------------------


pm riff 2
   6x per chord without palm mute
e|-----------------------------------------------2x
B|-----------------------------------------------
G|-7-9-5-7---------------------------------------
D|-7-9-5-7---------------------------------------
A|-5-7-3-5---------------------------------------
E|-0-0-0-0---------------------------------------

intro 3x

riff 2
e|-----------------------------------------------
B|-----------------------------------------------
G|-7-77-7-77-5-55-5-55-7-77-7-77-5-55-7:---------
D|-7-77-7-77-5-55-5-55-7-77-7-77-5-55-7:---------
A|-5-55-5-55-3-33-3-33-5-55-5-55-3-33-5:---------
E|-0----0----0----0----0----0----0----0:---------
----------------------------------------------------------





Comments


Popular Offspring tabs & chords
A Lot Like Me 1 Bass Tabs
All I Want 1 Bass Tabs
Hopeless Bass Tabs
Gotta Get Away 1 Chords
Cant Get My Head Around You 4 Tabs
Cruising California Bumpin In My Trunk 1 Tabs
Pretty Fly 2 Tabs
Race Against Myself Tabs
Self Esteem Intro Tabs
All I Want Ukulele


Song lyrics



↑ Back to top | Tablatures and chords are parodies/interpretations of the original songs. You may use it for private study, scholarship, research or language learning purposes only
© 2014 AZChords.com Contact us | Privacy policy | DMCA | Add/correct tabs | Request tabs | Top 50 tabs