» » »

Come Out And Play Tabs (ver.3)

Artists:  A B C D E F G H I J K L M N O P Q R S T U V W X Y Z # 

Come Out And Play Tabs (ver.3)

Offspring
Rating:
0/5 (0 votes)

Tabs too difficult? Try these video lessons and learn fast.
                The offspring – come out and play

This is a good version if you’re just playing around with the song. Its mostly just the rhythm guitar .

intro
e---------------------------------------------|
B--------------------------------------------|
G--------------------------------------------|
D--------------------------------------------|
A--------------------------------------------|
E--------------------12*-12*-12*---------|

*=harmonics 

intro/verse
e---------------------------------------|
B--------------------------------------|
G----8-----11-----6-----6-----------|
D----9-----12-----7-----7-----------|(repeat till the Egyptian sounding part)
A----9-----12-----7-----7-----------| (these are bar cords)
E----7-----10-----5-----5------------|

Egyptian solo
e---------------------------------------|
B--------------------------------------|
G--------------------------------------|
D---------1/2-2-4-1------------------| (usually repeats 4 times, listen for more or less)
A—2h3--------------3-2-2h3-2-----|
E---------------------------------------|

H= hammer on
/ = slide

verse
e---------------------------------------|
B--------------------------------------|
G----8-----11-----6-----6-----------|
D----9-----12-----7-----7-----------|(listen to the song to see how long u repeat)
A----9-----12-----7-----7-----------| 
E----7-----10-----5-----5-----------|

Verse2 (The gangs stake out their own campus locale….)
E -----------------------2--2-2-2----| for the e-2 b-3 g-2 part,
B -----------------------3--3-3-3----| play the first time strong, then the next three faster
G --1-1—4-4---3-3—2--2-2-2----|
D --2-2—5-5---4-4----------------|
A --2-2—5-5---4-4----------------|
E ---------3-3---2-2----------------|  x2

Chorus (same as verse)
e---------------------------------------|
B--------------------------------------|
G----8-----11-----6-----6-----------|
D----9-----12-----7-----7-----------|
A----9-----12-----7-----7-----------| 
E----7-----10-----5-----5-----------| (repeat as needed) 

Chorus 2 (same as verse 2)
E -----------------------2--2-2-2----| 
B -----------------------3--3-3-3----| 
G --1-1—4-4---3-3—2--2-2-2----|
D --2-2—5-5---4-4-----------------| 2x
A --2-2—5-5---4-4-----------------|
E ---------3-3---2-2-----------------|  

Egyptian solo
e---------------------------------------|
B--------------------------------------|
G--------------------------------------|
D---------1/2-2-4-1------------------| 4x
A—2h3--------------3-2-2h3-2-----|
E---------------------------------------|


The rest of the song just repeats that. You really need to listen to the song for the beats and repeats. 

Yeah this is my first tab…so it’s not the greatest.
-Nicole
            
Tabs too difficult? Try these video lessons and learn fast.




comments powered by Disqus
↑ Back to top | Tablatures and chords are parodies/interpretations of the original songs. You may use it for private study, scholarship, research or language learning purposes only