» » »

Come Out And Play Tabs (ver.1)

Artists:  A B C D E F G H I J K L M N O P Q R S T U V W X Y Z # 

Come Out And Play Tabs (ver.1)

Offspring
Rating:
0/5 (0 votes)

Tabs too difficult? Try these video lessons and learn fast.
                PROPS GO TO: Scott

Come Out And Play by The Offspring 

I believe that this tab is correct. It is the best one I have seen for 
this song. Most others are wrong or very confusing to a beginer. Thats 
the main reason why I did this tab. 
							 
        	   		                           played over part 2 4X                 
INTRO  		    part 1 4X	           part 2 4X             guitar 2
E|-----------|---------------------|-----------------------|---7-7-7/10\5--5---|
B|-----------|---------------------|-----------------------|---7-7-7/10\5--5---|
G|-----------|---------7-7---------|----------7--7---------|-------------------|
D|-----------|---9-9-9-7-7-4-7-7---|---9-9-9--7--7-4-7-7---|-------------------|
A|---7-7-7---|---9-9-9-5-5-4-7-7---|---9-9-9--5--5-4-7-7---|-------------------|
E|---7-7-7---|---7-7-7-----2-5-5---|---7-7-7-------2-5-5---|-------------------|
 |  NATURAL  |
 \_HARMONICS_/   

      4X (4th time only play brackets)        4X (4th time only play brackets)
VERSE		guitar 1	                         guitar 2
E|-----------------------------------------| |--------------------------------|
B|-----------------------------------------| |--------------------------------|
G|---------------------------7-7-7---------| |--------------------------------|
D|---(9-9-9-4-4-4-7-7-9)-9-9-7-7-7-4-7-7---| |--(-----1-2/4\2-1----)----------|
A|---(9-9-9-4-4-4-7-7-9)-9-9-5-5-5-4-7-7---| |--(2-3------------3-2)--2-3-2---|
E|---(7-7-7-2-2-2-5-5-7)-7-7-------2-5-5---| |--------------------------------|
     \___________palm-mute_____________/    
                                                               
                   4X
E|---------------------------------------|
B|---------------------------------------|
G|-------------------------7-7-7---------|
D|---9-9-9-4-4-4-7-7-9-9-9-7-7-7-4-7-7---|
A|---9-9-9-4-4-4-7-7-9-9-9-5-5-5-4-7-7---|
E|---7-7-7-2-2-2-5-5-7-7-7-------2-5-5---|
     \___________palm-mute___________/
                        
PRE-CHORUS					      *=play8X
E|------------------------------------------------------------|
B|--------------------------------------------------------*---|
G|---9-9-9-9-12-12-12-12-11-11-11------------------------11---|
D|---9-9-9-9-12-12-12-12-11-11-11-9-9-12-9-9-9-4-4-4-7-7-11---|
A|---7-7-7-7-10-10-10-10--9--9--9-9-9-12-9-9-9-4-4-4-7-7--9---|
E|--------------------------------7-7-10-7-7-7-2-2-2-5-5------|
                                         \__palm-mute__/ 
    (playthrough with
   brackets 3rd X only)    
CHORUS       3X               <------ same thing
E|-------------------------|-------------------------|
B|-------------------------|-------------------------|
G|---------7-7-------------|---------7-7-------------|
D|---9-9-9-7-7-4-7-7-(9)---|---9-9-9-7-7-4-7-7-(9)---|
A|---9-9-9-5-5-4-7-7-(9)---|---9-9-9-5-5-4-7-7-(9)---|
E|---7-7-7-----2-5-5-(7)---|---7-7-7-----2-5-5-(7)---|

  play brackets 1X then playthrough entire part *=play8X
E|------------------------------------------------------------------------------|
B|---------------------*--------------------------------------------------------|
G|---(------7-7------)-9--*-------7-7-----------------------------7-7-----------|
D|---(9-9-9-7-7-4-7-7)-9-10-9-9-9-7-7-4-7-7-4-4-4-4-4-4-7-7-9-9-9-7-7-4-7-7-9---|
A|---(9-9-9-5-5-4-7-7)-7-10-9-9-9-5-5-4-7-7-4-4-4-4-4-4-7-7-9-9-9-5-5-4-7-7-9---|
E|---(7-7-7-----2-5-5)----8-7-7-7-----2-5-5-2-2-2-2-2-2-5-5-7-7-7-----5-5-5-7---|

Play verse, pre-chorus, chorus then
                                 
 		  4X		            		 4X
 	        guitar1		                       guitar 2
E|---------------------------------------| |------------------------------|
B|---------------------------------------| |------------------------------|
G|-------------------------7-7-7---------| |------------------------------|
D|---9-9-9-4-4-4-7-7-9-9-9-7-7-7-4-7-7---| |-------1-2/4\2-1--------------|
A|---9-9-9-4-4-4-7-7-9-9-9-5-5-5-4-7-7---| |--2-3------------3-2--2-3-2---|
E|---7-7-7-2-2-2-5-5-7-7-7-------2-5-5---| |------------------------------|
     \___________palm-mute_____________/  

THEN PLAY PRE-CHORUS AND CHORUS AND THATS IT!
HOPE YOU LIKE IT!
            
Tabs too difficult? Try these video lessons and learn fast.




comments powered by Disqus
↑ Back to top | Tablatures and chords are parodies/interpretations of the original songs. You may use it for private study, scholarship, research or language learning purposes only