>
 >
Change The World 2

Change The World 2 Guitar Tabs

Offspring - Change The World 2 chords, tabs, tablatures, lyrics

Guitar lessons | Add/correct | Request | Top 50 tabs Artists:  A B C D E F G H I J K L M N O P Q R S T U V W X Y Z 0-9

Change The World 2 Guitar Tabs – Offspring

CD, Sheet music, Poster

Do you like Change The World 2? Share with your friends now
Bass TabsTabsTabs v2Tabs v3
THIS IS 100% CORRECT THER MIGHT BE A FEW MISTKES BUT I DOUBT IT :-)

Intro x2
|---------------------------------4-4-4-4/5-4--------------------|
|---------------------------------5-5-5-5/6-5-0--4-4-4-4/5\4---4-|
|------------------------------------------------------------6---|
|--7-7-7-6-6-7-7--9-9-9--7-7-7-6---------------------------------|
|-------------------------------7--------------------------------|
|----------------------------------------------------------------|

Verse Part 1: X 8  
|------------------|
|------------------|
|-11-11--11--11-11-|
|-11-11--11--11-11-|
|--9--9---9---9--9-|
|------------------|

End on this:
|---|
|---|
|---|
|-4-|
|-4-|
|-2-|


|-----------------------------------------------|
|-----------------------------------------------|
|-11-11:--------11-11-9-9:----9-9---------------|
|-11-11:--------11-11-9-9:----9-9-9-9:----9-9-4-|
|--9--9:---------9--9-7-7:----7-7-9-9:----9-9-4-|
|---------------------------------7-7:----7-7-2-|

Riff before Chorus
|---\x\------------|
|---\x\------------|
|---\x\---9*-------|
|-14\x\7*-9*-9*-9*-|
|-14\x\7*-7*-9*-9*-|
|-12\x\5*----7*-7*-|

then this ("no one else"):
|----------------|
|----------------|
|-6-6-6-7:--9\x\-|
|-6-6-6-7:--9\x\-|
|-4-4-4-5:--7\x\-|
|----------------|

ChorusX2
|------------------------------------------------------|
|------------------------------------------------------|
|-------------9-9--9--9-9-4-4--4--4-4-11-11--11--11-11-|
|-4-4--4--4-4-9-9--9--9-9-4-4--4--4-4-11--9---9---9--9-|
|-4-4--4--4-2-7-7--7--7-7-2-2--2--2-2--9--9---9---9--9-|
|-2-2--2--2-2------------------------------------------|

End on this:
|---|
|---|
|---|
|-4-|
|-4-|
|-2-|
|-----------------------------------------------|
|-11-11:--------11-11-9-9:----9-9---------------|
|-11-11:--------11-11-9-9:----9-9-9-9:----9-9-4-|
|--9--9:---------9--9-7-7:----7-7-9-9:----9-9-4-|
|---------------------------------7-7:----7-7-2-|

Riff before Chorus(this whole riff is left hand muted):
|---\x\------------|
|---\x\------------|
|---\x\---9*-------|
|-14\x\7*-9*-9*-9*-|
|-14\x\7*-7*-9*-9*-|
|-12\x\5*----7*-7*-|

then this ("no one else"):
|----------------|
|----------------|
|-6-6-6-7:--9\x\-|
|-6-6-6-7:--9\x\-|
|-4-4-4-5:--7\x\-|
|----------------|

ChorusX2
|------------------------------------------------------|
|------------------------------------------------------|
|-------------9-9--9--9-9-4-4--4--4-4-11-11--11--11-11-|
|-4-4--4--4-4-9-9--9--9-9-4-4--4--4-4-11--9---9---9--9-|
|-4-4--4--4-2-7-7--7--7-7-2-2--2--2-2--9--9---9---9--9-|
|-2-2--2--2-2------------------------------------------|

Then play this:
|----------------------------------------------------------------|
|----------------------------------------------------------------|
|-------------9-9--9--9-9-4-4--4--4-4-6-6-6-7:--11*--------9-9-9-|
|-4-4--4--4-4-9-9--9--9-9-4-4--4--4-4-6-6-6-7:--11*-7-7-7--9-9-9-|
|-4-4--4--4-4-7-7--7--7-7-2-2--2--2-2-4-4-4-5:---9*-7-7-7--7-7-7-|
|-2-2--2--2-2---------------------------------------5-5-5--------|

|----------------------------------------------------------|
|----------------------------------------------------------|
|-11*--------9-9-9--11*-------9-9--11-11:Drum Fill then----|
|-11*-7-7-7--9-9-9--11*-7-7---9-9--11-11:Drum Fill then-4:-|
|--9*-7-7-7--7-7-7---9*-7-7---7-7---9--9:Drum Fill then-4:-|
|-----5-5-5-------------5-5-----------------------------2:-|

Intro again: Play this 6 times
|---------------------------------4-4-4-4/5-4--------------------|
|---------------------------------5-5-5-5/6-5-0--4-4-4-4/5\4---4-|
|-----------------4-4-4--------------------------------------6---|
|-4h7-7-7-6-6-7-7-------7-7-7-6----------------------------------|
|-------------------------------7--------------------------------|
|----------------------------------------------------------------|

Verse Part 1: Repeat 8 times    
|------------------|
|------------------|
|-11-11--11--11-11-|
|-11-11--11--11-11-|
|--9--9---9---9--9-|
|------------------|


Riff before Chorus (left hand palm mute)
|---\x\------------|
|---\x\------------|
|---\x\---9*-------|
|-14\x\7*-9*-9*-9*-|
|-14\x\7*-7*-9*-9*-|
|-12\x\5*----7*-7*-|

then this
|----------------|
|----------------|
|-6-6-6-7:--9\x\-|
|-6-6-6-7:--9\x\-|
|-4-4-4-5:--7\x\-|
|----------------|

Chorus x2
|------------------------------------------------------|
|------------------------------------------------------|
|-------------9-9--9--9-9-4-4--4--4-4-11-11--11--11-11-|
|-4-4--4--4-4-9-9--9--9-9-4-4--4--4-4-11--9---9---9--9-|
|-4-4--4--4-2-7-7--7--7-7-2-2--2--2-2--9--9---9---9--9-|
|-2-2--2--2-2------------------------------------------|
play this:
|----------------------------------------------------------------|
|----------------------------------------------------------------|
|-------------9-9--9--9-9-4-4--4--4-4-6-6-6-7:--11*--------9-9-9-|
|-4-4--4--4-4-9-9--9--9-9-4-4--4--4-4-6-6-6-7:--11*-7-7-7--9-9-9-|
|-4-4--4--4-4-7-7--7--7-7-2-2--2--2-2-4-4-4-5:---9*-7-7-7--7-7-7-|
|-2-2--2--2-2---------------------------------------5-5-5--------|

|----------------------------------------------------------|
|----------------------------------------------------------|
|-11*--------9-9-9--11*-------9-9--11-11:Drum Fill then----|
|-11*-7-7-7--9-9-9--11*-7-7---9-9--11-11:Drum Fill then-4:-|
|--9*-7-7-7--7-7-7---9*-7-7---7-7---9--9:Drum Fill then-4:-|
|-----5-5-5-------------5-5-----------------------------2:-|





Comments


Popular Offspring tabs & chords
Days Go By Chords
Dirty Magic Chords
Come Out And Play 1 Tabs
Come Out And Play 4 Tabs
Hand Grenades Tabs
Pay The Man Tabs
Pretty Fly Tabs
Sessions Tabs
All Along Ukulele
Days Go By Ukulele


Song lyrics



↑ Back to top | Tablatures and chords are parodies/interpretations of the original songs. You may use it for private study, scholarship, research or language learning purposes only
© 2014 AZChords.com Contact us | Privacy policy | DMCA | Add/correct tabs | Request tabs | Top 50 tabs