>
 >
(Can't Get My) Head Around You

(Can't Get My) Head Around You Bass Tabs

Offspring - (Can't Get My) Head Around You chords, tabs, tablatures, lyrics

Guitar lessons | Add/correct | Request | Top 50 tabs Artists:  A B C D E F G H I J K L M N O P Q R S T U V W X Y Z 0-9

(Can't Get My) Head Around You Bass Tabs – Offspring

CD, Sheet music, Poster

Do you like (Can't Get My) Head Around You? Share with your friends now
Bass TabsChordsTabs
Bassist: Greg K.
Tuning: Standard

Intro 0:16
G|-----|
D|-----|
A|-----|
E|-10\-|

Verse
G|-------------------------|
D|-------------------------|
A|-----------2-555---------|
E|-000-2-333-------3-555-3-|

Chorus
G|------------------------------------------|
D|------------------------------------------|
A|-3333333333333333----7\----7\----7\----7\-|
E|------------------00----00----00----00----|

G|----------------------------------|
D|----------------------------------|
A|3333333333333333-5555555-22222222-|
E|----------------------------------|

-verse
-chorus
-verse
-verse during little solo

G|------------------|
D|------------------|
A|-7-7-7-7-7-7-7-7\-|
E|------------------|

-chorus
-BREAK
-verse

Ending
G|---------------------|
D|---------------------|
A|---------------------|
E|-00000000-0000000-0~-|





Comments


Popular Offspring tabs & chords
Killboy Powerhead Bass Tabs
Smash It Up Chords
All I Have Left Is You Tabs
Beheaded 2 Tabs
Fix You Tabs
Lapd 2 Tabs
No Breaks 1 Tabs
Original Prankster 7 Tabs
Out On Patrol Tabs
Self Esteem 1 Tabs


Song lyrics



↑ Back to top | Tablatures and chords are parodies/interpretations of the original songs. You may use it for private study, scholarship, research or language learning purposes only
© 2014 AZChords.com Contact us | Privacy policy | DMCA | Add/correct tabs | Request tabs | Top 50 tabs