>
 >
Can Get My Head Around You

Can Get My Head Around You Guitar Tabs

Offspring - Can	 Get My Head Around You chords, tabs, tablatures, lyrics

Guitar lessons | Add/correct | Request | Top 50 tabs Artists:  A B C D E F G H I J K L M N O P Q R S T U V W X Y Z 0-9

Can Get My Head Around You Guitar Tabs – Offspring

CD, Sheet music, Poster

Do you like Can Get My Head Around You? Share with your friends now
Tabs

                     (CAN'T GET MY) HEAD AROUND YOU
Intro (Acoustic)


E-----------------
B-----------------
G-7-7-7-7-7-7-7-7-
D-7-7-7-7-7-7-7-7-
A-5-5-5-5-5-5-5-5-
E-----------------

P.M
E------------------------------------
B------------------------------------
G-------------------7-7-7-X----------  X4
D-2-2-2-X--5-5-5-X--7-7-7-X--7-7-7-X-
A-2-2-2-X--5-5-5-X--5-5-5-X--7-7-7-X-
E-O-O-O-X--3-3-3-X-----------5-5-5-X-


VERSE

E--------------------------------
B--------------------------------
G---------------X-7--7-X---------
D-2--2--X-5--5--X-7--7-X--7--7---  X4
A-2--2--X-5--5--X-5--5-X--7--7---
E-O--O--X-3--3------------5--5---


E--------------------------------------------
B--------------------------------------------
G--------------------------------------------
D-9999999999999999---------------------------
A-9999999999999999----O-O---O-O---O-O---O-O--
E-7777777777777777----O-O---O-O---O-O---O-O--

E-----------------------------------------------------------
B-----------------------------------------------------------
G-----------------------------------------------------------
D-9999999999999999-11-11-11-11-11-11-11-11---8-8-8-8-8-8-8-8
A-9999999999999999-11-11-11-11-11-11-11-11---8-8-8-8-8-8-8-8
E-7777777777777777--9--9--9--9--9--9--9--9---6-6-6-6-6-6-6-6


E--------------------------------
B--------------------------------
G---------------X-7--7-X---------
D-2--2--X-5--5--X-7--7-X--7--7---  X8
A-2--2--X-5--5--X-5--5-X--7--7---
E-O--O--X-3--3------------5--5---

SECOND GUITAR COMES IN AFTER 4 TIMES OF THE ABOVE RIFF

SOLO TYPE EFFORT THINGY (WITH WAH)  :-)
E-------------------9-9---4-4------------------9-9---4-4--
B-77777777777777777------------777777777777777------------
G---------------------------------------------------------
D---------------------------------------------------------
A---------------------------------------------------------
E---------------------------------------------------------


E-------------------9-9---4-4-----------------
B-77777777777777777-----------4-4-4-4-4-4-4-4-
G---------------------------------------------
D---------------------------------------------
A---------------------------------------------
E---------------------------------------------

WHILE SECOND GUITAR IS PLAYING -4-4-4-4-4-4-4-4-
FIRST GUITAR PLAYS


E--------------------
B--------------------
G--------------------
D-2-2-2-2-2-2-2-2-2--
A-2-2-2-2-2-2-2-2-2--
E-0-0-0-0-0-0-0-0-0--


E--------------------------------------------
B--------------------------------------------
G--------------------------------------------
D-9999999999999999---------------------------
A-9999999999999999----O-O---O-O---O-O---O-O--
E-7777777777777777----O-O---O-O---O-O---O-O--


E-----------------------------------------------------------
B-----------------------------------------------------------
G-----------------------------------------------------------
D-9999999999999999-11-11-11-11-11-11-11-11---8-8-8-8-8-8-8-8
A-9999999999999999-11-11-11-11-11-11-11-11---8-8-8-8-8-8-8-8
E-7777777777777777--9--9--9--9--9--9--9--9---6-6-6-6-6-6-6-6


P.M
E------------------------------
B------------------------------
G-------------------7-7-7-X---- X4
D-2-2-2-X--5-5-5-X--7-7-7-X--7-
A-2-2-2-X--5-5-5-X--5-5-5-X--7-
E-O-O-O-X--3-3-3-X-----------5-


E--------------------------------
B--------------------------------
G---------------X-7--7-X---------
D-2--2--X-5--5--X-7--7-X--7--7---  X8
A-2--2--X-5--5--X-5--5-X--7--7---
E-O--O--X-3--3------------5--5---

SECOND GUITAR COMES IN AFTER 4 TIMES OF THE ABOVE RIFF

SOLO TYPE EFFORT THINGY (WITH WAH)  :-)
E-------------------9-9---4-4------------------9-9---4-4--
B-77777777777777777------------777777777777777------------
G---------------------------------------------------------
D---------------------------------------------------------
A---------------------------------------------------------
E---------------------------------------------------------


E-------------------9-9---4-4-----------------
B-77777777777777777-----------4-4-4-4-4-4-4-4-
G---------------------------------------------
D---------------------------------------------
A---------------------------------------------
E---------------------------------------------

WHILE SECOND GUITAR IS PLAYING -4-4-4-4-4-4-4-4-
FIRST GUITAR PLAYS


E--------------------
B--------------------
G--------------------
D-2-2-2-2-2-2-2-2-2--
A-2-2-2-2-2-2-2-2-2--
E-0-0-0-0-0-0-0-0-0--

OH YEAH THAT WAS AESOME!!!!!

DID YOU LIKE THAT?

ANY COMMENTS/PRAISE/THANX/GRATITUDE/
WORSHIPING OR ANY RUBBISH 





Comments


Popular Offspring tabs & chords
Have You Ever Bass Tabs
Nitro Bass Tabs
Bad Habit 1 Tabs
Come Out Swinging 2 Tabs
Have You Eva Tabs
No Hero Tabs
The Kids Aren Alrite Tabs
Walla Walla Tabs
What Happened To You? Tabs
One Fine Day Ukulele


Song lyrics



↑ Back to top | Tablatures and chords are parodies/interpretations of the original songs. You may use it for private study, scholarship, research or language learning purposes only
© 2014 AZChords.com Contact us | Privacy policy | DMCA | Add/correct tabs | Request tabs | Top 50 tabs