>
 >
Bonus Conspiracy Of One

Bonus Conspiracy Of One Guitar Tabs

Offspring - Bonus Conspiracy Of One chords, tabs, tablatures, lyrics

Guitar lessons | Add/correct | Request | Top 50 tabs Artists:  A B C D E F G H I J K L M N O P Q R S T U V W X Y Z 0-9

Bonus Conspiracy Of One Guitar Tabs – Offspring

CD, Sheet music, Poster

Do you like Bonus Conspiracy Of One? Share with your friends now
Tabs
Track : Bonus


guitar 1 :             play 6 times
--7---3---5---8--------------------------------
-----------------------------------------------
-----------------------------------------------
-----------------------------------------------
-----------------------------------------------
-----------------------------------------------




0 min 06 sec :
guitar 2 :
--7---3---5---8---------------------------------
------------------------------------------------
------------------------------------------------
------------------------------------------------
------------------------------------------------
------------------------------------------------




0 min 12 sec :
guitar 2 :
------------------------------------------------
------------------------------------------------
---9-9----------9-9-----------------------------
---9-9----------9-9-----------------------------
---7-7----------7-7-----------------------------
---7-7----------7-7-----------------------------




0 min 25 sec :
guitar 2 :
-999-xx-9-x-9-x-9--/--777-xx-7-x-7-x-7----------------------121212-/-141414--
-999-xx-9-x-9-x-9--/--777-xx-7-x-7-x-7---777-xx-7-x-7-x-7---121212-/-141414--
-777-xx-7-x-7-x-7--/--555-xx-5-x-5-x-5---777-xx-7-x-7-x-7---101010-/-121212--
-----------------------------------------555-xx-5-x-5-x-5--------------------




0 min 37 sec :
guitar 1 & 2 :
-9---9-/-12--11-12--9--9-/-12-11-12--7--------------------------------
-9---9-/-12--11-12--9--9-/-12-11-12--7--------------------------------
-7---7-/-10--9--10--7--7-/-10-9--10--5--------------------------------
------------------------------------------5--555--55577--777----------
                                          ________P.M_______
                                                



0 min 44 sec :
guitar 1 & 2 :
--------------------------------------------------------
--------------------------------------------------------
-9---9-/-12--11-12--9--9-/-12-11---7-777777777777777----
-9---9-/-12--11-12--9--9-/-12-11---7-777777777777777----
-7---7-/-10--9--10--7--7-/-10-9----5-555555555555555----
--------------------------------------------------------




0 min 50 sec : 
guitar 1 & 2 : 
-5555-7-9-7-9999-9-7---5555-7-9-7-9999-9-7---9999-9-7----7-----/----
-5555-5-7-5-9999-9-5-7-5555-5-7-5-9999-9-5-7-9999-9-5-7--7-----/----
-3333-------7777-7---5-3333-------7777-7---5-7777-7---5--5-----/----




1 min 01 sec :         play 2 times
guitar 1 & 2 :
-9---9-/-12--11-12--9--9-/-12-11-12--7--------------------------
-9---9-/-12--11-12--9--9-/-12-11-12--7--------------------------
-7---7-/-10--9--10--7--7-/-10-9--10--5--------------------------
------------------------------------------5--555--55577--777----
                                          ________P.M_______
                                                



1 min 13 sec :
guitar 1 & 2 :
---------------------7------------------------------------------7-77777777777777---
-2--5-4-5--2---5-4-5-7----------------------2--5-4-5--2---5-4-5-7-77777777777777---
-2--5-4-5--2---5-4-5-5----------------------2--5-4-5--2---5-4-5-5-55555555555555---
-0--3-2-3--0---3-2-3----5-555-55577-777-----0--3-2-3--0---3-2-3--------------------
                        ______P.M______                           ____P.M_______




1 min 25 sec : 
guitar 1 & 2 : 
-5555-7-9-7-9999-9-7---5555-7-9-7-9999-9-7---9999-9-7----7---7777--/---
-5555-5-7-5-9999-9-5-7-5555-5-7-5-9999-9-5-7-9999-9-5-7--7---7777--/---
-3333-------7777-7---5-3333-------7777-7---5-7777-7---5--5---5555--/---




1 min 36 sec : 
guitar 1 & 2 : 
-5555-7-9-7-9999-9-7---5555-7-9-7-9999-9-7---9999-9-7----7---7777777--/--9--
-5555-5-7-5-9999-9-5-7-5555-5-7-5-9999-9-5-7-9999-9-5-7--7---7777777--/--9--
-3333-------7777-7---5-3333-------7777-7---5-7777-7---5--5---5555555--/--7--
                                                                    



1 min 47 sec : 
guitar 1 :               play 2 times
--7---3---5---8--------------------------------
-----------------------------------------------
-----------------------------------------------
-----------------------------------------------
-----------------------------------------------
-----------------------------------------------




1 min 53 sec :
guitar 2 :
------------------------------------------
------------------------------------------
----------9-9-----------------------------
----------9-9-----------------------------
----------7-7-----------------------------
----------7-7-----------------------------




2 min 00 sec :
guitar 1 & 2 :
--------------------5------------------------------------------7-7777777777777---
-22--5-4-5--2---5-4-5-----------------------2--5-4-5--2---5-4--7-7777777777777---
-22--5-4-5--2---5-4-3-----------------------2--5-4-5--2---5-4--5-5555555555555---
-00--3-2-3--0---3-2-----5-555-55577-777-----0--3-2-3--0---3-2--------------------
                        ______P.M______                          ___P.M____




2 min 12 sec : 
guitar 1 & 2 : 
-5555-7-9-7-9999-9-7---5555-7-9-7-9999-9-7---9999-9-7----7---7777-----
-5555-5-7-5-9999-9-5-7-5555-5-7-5-9999-9-5-7-9999-9-5-7--7---7777-----
-3333-------7777-7---5-3333-------7777-7---5-7777-7---5--5---5555-----




2 min 23 sec : 
guitar 1 & 2 : 
-5555-7-9-7-9999-9-7---5555-7-9-7-9999-9-7---9999-9-7----7---7777777--/--9---
-5555-5-7-5-9999-9-5-7-5555-5-7-5-9999-9-5-7-9999-9-5-7--7---7777777--/--9---
-3333-------7777-7---5-3333-------7777-7---5-7777-7---5--5---5555555--/--7---





Comments


Popular Offspring tabs & chords
Intermission Bass Tabs
Living In Chaos 2 Bass Tabs
Defy You Chords
Self Esteem 1 Chords
A Lot Like Me 1 Tabs
A Thousand Days 1 Tabs
Have You Ever 3 Tabs
Long Way Home Tabs
So Alone 1 Tabs
Fix You Ukulele


Song lyrics



↑ Back to top | Tablatures and chords are parodies/interpretations of the original songs. You may use it for private study, scholarship, research or language learning purposes only
© 2014 AZChords.com Contact us | Privacy policy | DMCA | Add/correct tabs | Request tabs | Top 50 tabs