>
 >
Bloodstains

Bloodstains Guitar Tabs

Offspring - Bloodstains chords, tabs, tablatures, lyrics

Guitar lessons | Add/correct | Request | Top 50 tabs Artists:  A B C D E F G H I J K L M N O P Q R S T U V W X Y Z 0-9

Bloodstains Guitar Tabs – Offspring

CD, Sheet music, Poster

Do you like Bloodstains? Share with your friends now
Bass TabsTabsTabs v2Tabs v3
Released: 2000 143 records
Track: 2

pm - palm mute
: - let ring


verse
pm_______|    |_______|    |_______|    |_______|    |_______|    |_______|
|------------------------------------------------------------------------------
|------------------------------------------------------------------------------
|------------------------------------------------------------------------------
|-4-4-4-4-2-5--4-4-4-4-2-5--4-4-4-4-2-5--4-4-4-4-2-5--2-2-2-2-0-3--2-2-2-2-0-5-
|-4-4-4-4-2-5--4-4-4-4-2-5--4-4-4-4-2-5--4-4-4-4-2-5--2-2-2-2-0-3--2-2-2-2-0-5-
|-2-2-2-2-0-3--2-2-2-2-0-3--2-2-2-2-0-3--2-2-2-2-0-3--0-0-0-0-0-1--0-0-0-0-0-3-
 |_______|    |_______|
 --------------------------|
 --------------------------|
 --------------------------|
 -4-4-4-4-2-5--4-4-4-4-2-5-|
 -4-4-4-4-2-5--4-4-4-4-2-5-|
 -2-2-2-2-0-3--2-2-2-2-0-3-|

chorus
        |_______|    |_______|           |_______|
|--------------------------------------------------------|
|--------------------------------------------------------|
|--------------------------------------------------------|
|-2:-----4-4-4-4-2-5--4-4-4-4-2-5--2:-----4-4-4-4-2-5--4-|
|-2:-----4-4-4-4-2-5--4-4-4-4-2-5--2:-----4-4-4-4-2-5--4-|
|-0:-----2-2-2-2-0-3--2-2-2-2-0-3--0:-----2-2-2-2-0-3--2-|

lyrics

they can make things worse for me sometimes i'd rather die
they can tell me lots of things but i can't see eye to eye
well, i know they know the way i think i know they always will
but someday i'm gonna change my mind sometimes i'd rather kill
bloodstains speed kills
fast cars cheap thrills
rich girls fine wine
i've lost my sense i've lost control i've lost my mind
things seem so much different now the scene has died away
i haven't got a steady job and i've got no place to stay
well, it's a futuristic modern world but things aren't what they seem
someday you'd better wake up from this ***ed up fantasy





Comments


Popular Offspring tabs & chords
All I Want Live Bass Tabs
Cruising California Bumpin In My Trunk Bass Tabs
Gotta Get Away 3 Bass Tabs
Hopeless Bass Tabs
Kick Him When Hes Down 2 Bass Tabs
The Meaning Of Life 1 Bass Tabs
Come Out And Play Drum Tabs
Amazed Tabs
Defy You Intro Tabs
Lets Hear It For Rock Bottom 1 Tabs


Song lyrics



↑ Back to top | Tablatures and chords are parodies/interpretations of the original songs. You may use it for private study, scholarship, research or language learning purposes only
© 2014 AZChords.com Contact us | Privacy policy | DMCA | Add/correct tabs | Request tabs | Top 50 tabs