>
 >
Bad Habit 2

Bad Habit 2 Guitar Tabs

Offspring - Bad Habit 2 chords, tabs, tablatures, lyrics

Guitar lessons | Add/correct | Request | Top 50 tabs Artists:  A B C D E F G H I J K L M N O P Q R S T U V W X Y Z 0-9

Bad Habit 2 Guitar Tabs – Offspring

CD, Sheet music, Poster

Do you like Bad Habit 2? Share with your friends now
Bass TabsBass Tabs v2Bass Tabs v3TabsTabs v2Tabs v3
the whole of the song is distorted.


 Intro
            x6 
E|----------|
B|----------|
G|----2-----|
D|----2-----|
A|----0-----|
E|----------|

after 1st time scrap your pick from 12 fret up to 1st on the top string, 


 			              x2
E|--------------------------------------------------|
B|--------------------------------------------------|
G|--2----5----7----5----2-------2----5----2---------|
D|--2----5----7----5----2-------2----5----2---------|
A|--0----3----5----3----0-------0----3----0---------|
E|--------------------------3-----------------------|


Here you can work out it out just strum the guitar fast

E|-------------------|
B|-------------------|
G|--5--------2-------|
D|--5--------2-------|
A|--3--------0-------|
E|-------------------|
                 



E|-----------------------------------------------------------------|
B|-----------------------------------------------------------------|
G|-2----9----10----5----7----9-------------------------------------|
D|-2----9----10----5----7----9-------------------------------------|
A|-0----7-----8----3----5----7-------------------------------------|
E|-----------------------------------------------------------------| 


thats about it!





Comments


Popular Offspring tabs & chords
Burn It Up 2 Bass Tabs
D U I 4 Bass Tabs
Hammerhead 3 Bass Tabs
Hey Joe Bass Tabs
Hit That 2 Bass Tabs
Hopeless Bass Tabs
Jennifer Lost The War Bass Tabs
Bloodstains 1 Tabs
Kristy Are You Doing Okay Tabs
Oc Life Tabs


Song lyrics



↑ Back to top | Tablatures and chords are parodies/interpretations of the original songs. You may use it for private study, scholarship, research or language learning purposes only
© 2014 AZChords.com Contact us | Privacy policy | DMCA | Add/correct tabs | Request tabs | Top 50 tabs