» » »

Bad Habit Bass tabs (ver.1)

Artists:  A B C D E F G H I J K L M N O P Q R S T U V W X Y Z # 

Bad Habit Bass tabs (ver.1)

Offspring
Rating:
3/5 (8 votes)

Tabs too difficult? Try these video lessons and learn fast.
                
Tuning:  Standard


Intro
G|-------2~----------|
D|-------------------|
A|---0~----------0-0-|  x6
E|-3-----------3-----|

G|------0~-----------|
D|---------------2~--|
A|-------------------|
E|-0-3--------0------|

Transition
G|---------------|
D|---------------| 
A|-0-0-0-000-0-0-| follow the drums
E|---------------|

Verse
G|----------------------|
D|----------------------|
A|-0-3-5-3-00-0-3-0-000-| x2
E|----------------------|

Pre-Chorus
G|----------|    |----------|
D|----------|    |----------|
A|----------| x4 |----------| x4
E|-3-333333-|    |-0-000000-|

Chorus
G|----------------------|
D|----233---0--000-2222-|
A|-00------3------------| x4
E|----------------------|

G|-------------------------|
D|-------3-333-------2-222-|
A|-0-xxx-------3-xxx-------| x2
E|-------------------------|

Bridge
G|-------------------------|
D|-7-77-6-555--------------|
A|------------7-66-55------| x4
E|--------------------8-55-|


Song Structure:
- Intro
- Transition
- Verse
- Pre-chorus
- Chorus
- Transition
- Verse
- Pre-chorus
- Chorus
- Bridge
- Pre-Chorus
- Chorus

----****----
--Comments--
----****----
Wow the other bass tabs for this song are garbage.
So I made my own.  I left out a few things that
should be obvious if you just listen to the song. 
 
Things like continuing to strum certain notes at 
the end of measures etc etc, but you should be 
able to figure it out, all the notes are there.
            
Tabs too difficult? Try these video lessons and learn fast.




comments powered by Disqus
↑ Back to top | Tablatures and chords are parodies/interpretations of the original songs. You may use it for private study, scholarship, research or language learning purposes only